Home » G » Get Up Kids »

Get Up Kids - Coming Clean Bass

Artists:  A B C D E F G H I J K L M N O P Q R S T U V W X Y Z # 

Coming Clean Bass

(ver. 1) Click to play this song!
Get Up Kids
 Rating:
4/5 (4 votes)
                COMING CLEAN
The Get Up Kids
Tuning: Standard

By PatTheBeast 

INTRO
G|-------------------------------------------------------|
D|-------------------------------------------------------|
A|--4>------------4>--------------6h7-77---6h7-77-----4--|
E|-----5>-4>-0>------5>-4>-0>----------------------------| X2


VERSE
G|-------------------------|
D|-------------------------|
A|------------------4------|
E|--000-000-000-000--------| X3

CHORUS
G|----------------------------|		
D|----------------------------|
A|----------------------------|
E|--4--5--7------9--7—-5------| X4

G|---------------|
D|---------------|
A|---------------|
E|--9--7—-5------| X1

INTERLUDE
G|-----------------------------------------------|		
D|-----------------------------------------------|
A|-----------------------------------------------|
E|--4-/-7--5--/--77--55------4-/-7--5--/--12--11-|


G|----------------------------|		
D|----------------------------|
A|--4>---2>-----------2-------|
E|------------0>----4---------| X4


G|----------------------------|		
D|----------------------------|
A|----------------------------|
E|-----0000000-0000000--------|


CHORUS
G|---------------|
D|---------------|
A|---------------|
E|--9--7—-5------| X1


G|----------------------------|		
D|----------------------------|
A|----------------------------|
E|--4--5--7------9--7—-5------| X4


G|----------------------------|		
D|----------------------------|
A|----------------------------|
E|--9--7--5------4--5—-7------| X4
            
Submit corrections

↑ Back to top | Tablatures and chords for acoustic guitar and electric guitar, ukulele, drums are parodies/interpretations of the original songs. You may use it for private study, scholarship, research or language learning purposes only