» » »

Get Up Kids - A Newfound Intrest In Mass Tabs

Artists:  A B C D E F G H I J K L M N O P Q R S T U V W X Y Z # 

A Newfound Intrest In Mass Tabs

(ver. 1) Click to play this song!
Get Up Kids
 Rating:
4/5 (4 votes)

 A Newfound Intrest In Mass lessons Tabs too difficult? Try these video lessons and learn fast
 
                


Tunning: Standard



Intro:

guitar 1 (clean):
                                                    D5

-------2----------------------2------------2/3-2-------
---3-------3---3/5-3----3-------3----3-----------------
--------------------------0-------0----0------------7--
-2---2---2---2--------2-----2------------2----------7--
----------------------------------------------------5--
-------------------------------------------------------

guitar 2 (clean; this guitar blends with guitar 1 in the mix):

----------------------------------------------------7-7-7---7--
----------------------------------------------------7-5-4---5--
----------------------------------------------------5-5-5---5--

guitar 3 (clean):

----------------------------------------------------7-9-11--12\11-12\11-12\11-11--
----------------------------------------------------5-7--9--10\-9-10\-9--10\9--9--

    then:

guitar 1:

-------2----------------------2------------2/3-2--------------------
---3-------3---3/5-3----3-------3----3-------------7-7--------------
--------------------------0-------0----0-----------7-7-14-14-14-14--
-2---2---2---2--------2-----2------------2---------7-7--------------
---------------------------------------------------5-5-12-12-12-12--

guitar 2:

------------------------------------------------------
------------------------------------------------------
---------------------------------------------------7--
---------------------------------------------------4--
---------------------------------------------------5--
------------------------------------------------------

guitar 3:

------------------------------------------------------
------------------------------------------------------
---------------------------------------------------9--
------------------------------------------------------
---------------------------------------------------7--
------------------------------------------------------

    then (drums in):

guitar 1:

-------3p2-------5\3---3p0------------------------------------------
---2-------2-2-------------2-2-------7-----7/9-7/9------------------
---------------------------------0------0------------7--5p4--4h5p4--
-2---2---------0-----0----------------------------------------------

guitar 2 (we will now note guitar 3 as "guitar 2"):

-14------------9-----------------11-11-11-11/12\11---7-7-7-7-6-6--
-12------------7------------------9--9--9--9/10\-9---5-5-5-5-4-4--

    then:

both guitars : same

    then:

both guitars : same

    then:

guitar 1:

--------------------------------
-------3p2-------5\3---3p0------
---2-------2-2-------------2-2--
--------------------------------
-2---2---------0-----0----------
--------------------------------

guitar 2:

-----------------
-----------------
-14-----------9--
-----------------
-12-----------7--
-----------------
 

guitar 1:

---------2--------------------------2------------2/3-2---------------
---3-------3---3-----3/5-3----3-------3---3--------------------------
-----0-------0---0--------------0-------0---0------------11-------7--
-2-----2-----------2--------2-----2-----------2----------------------
----------------------------------------------------------9-------5--

guitar 2:

---------------------------------------------------------7-7-9-9-11-11-12\11-9--
---------------------------------------------------------5-5-7-7--9--9-10\-9-7--

    then ("I'll come home..."):

guitar 1:

---------2--------------------------2------------2/3-2------------------
---3-------3---3-----3/5-3----3-------3---3-----------------------------
-----0-------0---0--------------0-------0---0------------11--7--14--14--
-2-----2-----------2--------2-----2-----------2-------------------------
----------------------------------------------------------9--5--12--12--

guitar 2:

----------------------------------------------------------7--9--11--12-----------------0--
----------------------------------------------------------5--7---9--10-----------------0--
 

Chorus ("A place in my heart..."):

guitar 1:
                       D5

-7-7-7-7-6--9-9-9-9-7--7-----------------14\12-12\11-11/12\11--
-----------------------7---------------------------------------
-5-5-5-5-4--7-7-7-7-5--5-----------------12\10-10\-9--9/10\-9--

guitar 2:

-------------------------------------------------------
-------------------------------------------------------
-14-14-14---9-9-9-9----11-11-11-11/12\11--7-7-7-7-6-6--
-------------------------------------------------------
-12-12-12---7-7-7-7-----9--9--9--9/10\-9--5-5-5-5-4-4--
-------------------------------------------------------

    then ("...where we'll watch..."):

both guitars : same

    then ("...and when I doubt..."):

both guitars : same

    then:

guitar 1:
                       D5

-7-7-7-7-6--9-9-9-9-7--7-----------------14\12-12\11-11/12\11---7-7-7-7-6--9-9-9-9-7--
-----------------------7--------------------------------------------------------------
-5-5-5-5-4--7-7-7-7-5--5-----------------12\10-10\-9--9/10\-9---5-5-5-5-4--7-7-7-7-5--

guitar 2:

-14-14-14---9-9-9-9----11-11-11-11/12\11--7-7-7-7-6-6-----------14-14-14---9-9-9-9--
-12-12-12---7-7-7-7-----9--9--9--9/10\-9--5-5-5-5-4-4-----------12-12-12---7-7-7-7--
 

Bridge ("...lock my heart..."):

guitar 1:

D5----------------------------------G5

-7--7--4-6---7--7--4-6---7--7--4-6------12-11--9/12-12\11-11\9-9--
-7--7--------7--7--------7--7-------5-----------------------------
-5--5--2-4---5--5--2-4---5--5--2-4--5---10--9--7/10-10\-9--9\7-7--
------------------------------------3-----------------------------

guitar 2:

-7--7--7-6---7--7--7-6---7--7--7-6------------------------------
-7--7--------7--7--------7--7-------5---5------x\(pick-scr*pe)--
-5--5--5-4---5--5--5-4---5--5--5-4--5---5-----------------------
------------------------------------3---3-----------------------

    then:

guitar 1:

-7-14-9-12\11--7-7-7-7-6--9-9-9-9-7---7-14-9-12\11--7-7-7-7-6--9-9-9-9-7--
-5-12-7-10\-9--5-5-5-5-4--7-7-7-7-5---5-12-7-10\-9--5-5-5-5-4--7-7-7-7-5--

guitar 2:
         G5---------------A5                  G5---------------A5

-7-11-4-------------------------------7-11-4------------------------------
---------5-----9-9-9-9-7--7-7-7-7-7-----------5-----9-9-9-9-7--7-7-7-7-7--
-5--9-2--5----------------7-7-7-7-7---5--9-2--5----------------7-7-7-7-7--
---------3-----7-7-7-7-5--5-5-5-5-5-----------3-----7-7-7-7-5--5-5-5-5-5--

    then (..."I'd do anything for you."):

guitar 1:
                                     vocals in*
-----------------------------------------------------
-----------------------------------------------------
-7-7-7-7-6--9-9-9-9-7--7-7-7-7-6--9-9-9-9-7------14--
----------------------------------------------5------
-5-5-5-5-4--7-7-7-7-5--5-5-5-5-4--7-7-7-7-5---5--12--
----------------------------------------------3------

guitar 2:
            A5                               G5--A5

----------------------------------------------------
----------------------------------------------------
-------------------------------------------------2--
-9-9-9-9-7--7-7-7-7-7--9-9-9-9-7--7-7-7-7-7---5--2--
------------7-7-7-7-7-------------7-7-7-7-7---5--0--
-7-7-7-7-5--5-5-5-5-5--7-7-7-7-5--5-5-5-5-5---3-----
 

4/4 to 6/8 time change ("...give you the world..."):

guitar 1 (clean):

B5-----D5----G5-B5----D5----G5-B5----D5----G5    B5--D5-G5
             *distortion on *distortion on *distortion on
-----------------------------------------------------------
-----------------------------------------------------------
-----4-----7--------4-----7--------4-----7--------4--7-----
---4-----7---5----4-----7---5----4-----7---5------4--7--5--
-2-----5-----5--2-----5-----5--2-----5-----5------2--5--5--
-------------3--------------3--------------3------------3--

guitar 2:

-----------------------------------------------------------
-----------------------------------------------------------
--------------------------------------------------4--7-----
-------------5--------------5--------------5------4--7--5--
-------------5--------------5--------------5------2--5--5--
-------------3--------------3--------------3------------3--
 

Outro:

guitar 1:

B5--------D5-------G5----B5-------D5-------G5

----------------------------------------------
----------------------------------------------
-4--------7--------------4--------7-----------
-4--------7--------5-----4--------7--------5--
-2--------5--------5-----2--------5--------5--
-------------------3-----------------------3--

guitar 2:

----------------------------------------------------------
----------------------------------------------------------
-14-12-11-14-12-11-9-11--14-12-11-14-12-11-7-7-7-7-7/9\7--
----------------------------------------------------------
-12-10--9-12-10--9-7--9--12-10--9-12-10--9-5-5-5-5-5/7\5--
----------------------------------------------------------

    then:

guitar 1 : same

guitar 2:

(B5-------D5-------G5----B5-------D5-------G5)

----------------------------------------------
----------------------------------------------
-15-12-11-14-12-11-9-11--14-12-11-14-12-11-7--
----------------------------------------------
-13-10--9-12-10--9-7--9--12-10--9-12-10--9-5--
----------------------------------------------
            
Submit corrections


        A Newfound Intrest In Mass lessons Hard to play? Try these video lessons and learn fast A Newfound Intrest In Mass lessons
        
↑ Back to top | Tablatures and chords for acoustic guitar and electric guitar, ukulele, drums are parodies/interpretations of the original songs. You may use it for private study, scholarship, research or language learning purposes only