Home » G » Germs »

Germs - Not All Right Bass

Artists:  A B C D E F G H I J K L M N O P Q R S T U V W X Y Z # 

Not All Right Bass

(ver. 1) Click to play this song!
Germs
I am not 100% sure. but i am 75% sure this is how it goes

Verse
----------------| (repeat a few times)
-4---0----------|
-------4-5-4-00-|
----------------|


Chorus
---------------------------------------------|
-5----------5----------7----------7----------|
---7-5-7-10---7-5-7-10---9-7-9-12---9-7-9-12-|
---------------------------------------------|
            
Submit corrections

↑ Back to top | Tablatures and chords for acoustic guitar and electric guitar, ukulele, drums are parodies/interpretations of the original songs. You may use it for private study, scholarship, research or language learning purposes only