Home » G » Germs »

Germs - Going Down Ver 2 Tabs

Artists:  A B C D E F G H I J K L M N O P Q R S T U V W X Y Z # 

Going Down Ver 2 Tabs

(ver. 1) Click to play this song!
Germs
Intro/Verses:

e|5-7-7-7-3-5-------------------------------|
b|5-7-7-7-3-5-------------------------------|
g|6-8-8-8-4-6-------------------------------|
d|7-9-9-9-5-7-------------------------------| 
a|7-9-9-9-5-7-------------------------------|
e|5-7-7-7-3-5-------------------------------|

Sifting through apocalypse

e|5-7-7-7-3-5-------------------------------|
b|5-7-7-7-3-5-------------------------------|
g|6-8-8-8-4-6-------------------------------|
d|7-9-9-9-5-7-------------------------------| 
a|7-9-9-9-5-7-------------------------------|
e|5-7-7-7-3-5-------------------------------|

All I want's to catch a glimpse

e|5-7-7-7-3-5-------------------------------|
b|5-7-7-7-3-5-------------------------------|
g|6-8-8-8-4-6-------------------------------|
d|7-9-9-9-5-7-------------------------------| 
a|7-9-9-9-5-7-------------------------------|
e|5-7-7-7-3-5-------------------------------|

Just another broken day

e|5-7-7-7-3-5-------------------------------|
b|5-7-7-7-3-5-------------------------------|
g|6-8-8-8-4-6-------------------------------|
d|7-9-9-9-5-7-------------------------------| 
a|7-9-9-9-5-7-------------------------------|
e|5-7-7-7-3-5-------------------------------|

My whole world's gone away

e|5-7-7-7-3-5-------------------------------|
b|5-7-7-7-3-5-------------------------------|
g|6-8-8-8-4-6-------------------------------|
d|7-9-9-9-5-7-------------------------------| 
a|7-9-9-9-5-7-------------------------------|
e|5-7-7-7-3-5-------------------------------|

I feel the ceilings coming down

e|5-7-7-7-3-5-------------------------------|
b|5-7-7-7-3-5-------------------------------|
g|6-8-8-8-4-6-------------------------------|
d|7-9-9-9-5-7-------------------------------| 
a|7-9-9-9-5-7-------------------------------|
e|5-7-7-7-3-5-------------------------------|

I watch the dead men run around

e|5-7-7-7-3-5-------------------------------|
b|5-7-7-7-3-5-------------------------------|
g|6-8-8-8-4-6-------------------------------|
d|7-9-9-9-5-7-------------------------------| 
a|7-9-9-9-5-7-------------------------------|
e|5-7-7-7-3-5-------------------------------|

Trying hard to change the course

e|5-7-7-7-3-5-------------------------------|
b|5-7-7-7-3-5-------------------------------|
g|6-8-8-8-4-6-------------------------------|
d|7-9-9-9-5-7-------------------------------| 
a|7-9-9-9-5-7-------------------------------|
e|5-7-7-7-3-5-------------------------------|

'Cause they know what's best for us

Chorus:

E|-------------------|
B|-------------------|
G|--7-7-5-5-4-4-3-3--|
D|--7-7-5-5-4-4-3-3--|
A|--5-5-3-3-2-2-1-1--|
E|-------------------|

Your whole world's coming down

E|-------------------|
B|-------------------|
G|--7-7-5-5-4-4-3-3--|
D|--7-7-5-5-4-4-3-3--|
A|--5-5-3-3-2-2-1-1--|
E|-------------------|

Close to the bottom, close to the sound

E|-------------------|
B|-------------------|
G|--7-7-5-5-4-4-3-3--|
D|--7-7-5-5-4-4-3-3--|
A|--5-5-3-3-2-2-1-1--|
E|-------------------|

Your whole world's let me down

E|-------------------|
B|-------------------|
G|--7-7-5-5-4-4-3-3--|
D|--7-7-5-5-4-4-3-3--|
A|--5-5-3-3-2-2-1-1--|
E|-------------------|

Drag me down to the under ground

Verses:

e|5-7-7-7-3-5-------------------------------|
b|5-7-7-7-3-5-------------------------------|
g|6-8-8-8-4-6-------------------------------|
d|7-9-9-9-5-7-------------------------------| 
a|7-9-9-9-5-7-------------------------------|
e|5-7-7-7-3-5-------------------------------|

Sifting through apocalypse


e|5-7-7-7-3-5-------------------------------|
b|5-7-7-7-3-5-------------------------------|
g|6-8-8-8-4-6-------------------------------|
d|7-9-9-9-5-7-------------------------------| 
a|7-9-9-9-5-7-------------------------------|
e|5-7-7-7-3-5-------------------------------|

Already knew it would come to this


e|5-7-7-7-3-5-------------------------------|
b|5-7-7-7-3-5-------------------------------|
g|6-8-8-8-4-6-------------------------------|
d|7-9-9-9-5-7-------------------------------| 
a|7-9-9-9-5-7-------------------------------|
e|5-7-7-7-3-5-------------------------------|

Just another game to play


e|5-7-7-7-3-5-------------------------------|
b|5-7-7-7-3-5-------------------------------|
g|6-8-8-8-4-6-------------------------------|
d|7-9-9-9-5-7-------------------------------| 
a|7-9-9-9-5-7-------------------------------|
e|5-7-7-7-3-5-------------------------------|

How many ways have I got to play?

e|5-7-7-7-3-5-------------------------------|
b|5-7-7-7-3-5-------------------------------|
g|6-8-8-8-4-6-------------------------------|
d|7-9-9-9-5-7-------------------------------| 
a|7-9-9-9-5-7-------------------------------|
e|5-7-7-7-3-5-------------------------------|

Hear them running faster now

e|5-7-7-7-3-5-------------------------------|
b|5-7-7-7-3-5-------------------------------|
g|6-8-8-8-4-6-------------------------------|
d|7-9-9-9-5-7-------------------------------| 
a|7-9-9-9-5-7-------------------------------|
e|5-7-7-7-3-5-------------------------------|

They wear the hooves of Satan's crowd

e|5-7-7-7-3-5-------------------------------|
b|5-7-7-7-3-5-------------------------------|
g|6-8-8-8-4-6-------------------------------|
d|7-9-9-9-5-7-------------------------------| 
a|7-9-9-9-5-7-------------------------------|
e|5-7-7-7-3-5-------------------------------|

You came to visit for just one day

e|5-7-7-7-3-5-------------------------------|
b|5-7-7-7-3-5-------------------------------|
g|6-8-8-8-4-6-------------------------------|
d|7-9-9-9-5-7-------------------------------| 
a|7-9-9-9-5-7-------------------------------|
e|5-7-7-7-3-5-------------------------------|

But now that you're here, you 're here to stay

Chorus:

E|-------------------|
B|-------------------|
G|--7-7-5-5-4-4-3-3--|
D|--7-7-5-5-4-4-3-3--|
A|--5-5-3-3-2-2-1-1--|
E|-------------------|

Your whole world's coming down

E|-------------------|
B|-------------------|
G|--7-7-5-5-4-4-3-3--|
D|--7-7-5-5-4-4-3-3--|
A|--5-5-3-3-2-2-1-1--|
E|-------------------|

Close to the bottom, close to the sound

E|-------------------|
B|-------------------|
G|--7-7-5-5-4-4-3-3--|
D|--7-7-5-5-4-4-3-3--|
A|--5-5-3-3-2-2-1-1--|
E|-------------------|

Your whole world's let me down

E|-------------------|
B|-------------------|
G|--7-7-5-5-4-4-3-3--|
D|--7-7-5-5-4-4-3-3--|
A|--5-5-3-3-2-2-1-1--|
E|-------------------|

Drag me down to the under ground

Verses:

e|5-7-7-7-3-5-------------------------------|
b|5-7-7-7-3-5-------------------------------|
g|6-8-8-8-4-6-------------------------------|
d|7-9-9-9-5-7-------------------------------| 
a|7-9-9-9-5-7-------------------------------|
e|5-7-7-7-3-5-------------------------------|

Sifting through apocalypse

e|5-7-7-7-3-5-------------------------------|
b|5-7-7-7-3-5-------------------------------|
g|6-8-8-8-4-6-------------------------------|
d|7-9-9-9-5-7-------------------------------| 
a|7-9-9-9-5-7-------------------------------|
e|5-7-7-7-3-5-------------------------------|

All I want's to catch a glimpse

e|5-7-7-7-3-5-------------------------------|
b|5-7-7-7-3-5-------------------------------|
g|6-8-8-8-4-6-------------------------------|
d|7-9-9-9-5-7-------------------------------| 
a|7-9-9-9-5-7-------------------------------|
e|5-7-7-7-3-5-------------------------------|

Just another broken day

e|5-7-7-7-3-5-------------------------------|
b|5-7-7-7-3-5-------------------------------|
g|6-8-8-8-4-6-------------------------------|
d|7-9-9-9-5-7-------------------------------| 
a|7-9-9-9-5-7-------------------------------|
e|5-7-7-7-3-5-------------------------------|

My whole world's gone away

e|5-7-7-7-3-5-------------------------------|
b|5-7-7-7-3-5-------------------------------|
g|6-8-8-8-4-6-------------------------------|
d|7-9-9-9-5-7-------------------------------| 
a|7-9-9-9-5-7-------------------------------|
e|5-7-7-7-3-5-------------------------------|

I feel the ceilings coming down

e|5-7-7-7-3-5-------------------------------|
b|5-7-7-7-3-5-------------------------------|
g|6-8-8-8-4-6-------------------------------|
d|7-9-9-9-5-7-------------------------------| 
a|7-9-9-9-5-7-------------------------------|
e|5-7-7-7-3-5-------------------------------|

I watch the dead men run around

e|5-7-7-7-3-5-------------------------------|
b|5-7-7-7-3-5-------------------------------|
g|6-8-8-8-4-6-------------------------------|
d|7-9-9-9-5-7-------------------------------| 
a|7-9-9-9-5-7-------------------------------|
e|5-7-7-7-3-5-------------------------------|

Trying hard to change the course

e|5-7-7-7-3-5-------------------------------|
b|5-7-7-7-3-5-------------------------------|
g|6-8-8-8-4-6-------------------------------|
d|7-9-9-9-5-7-------------------------------| 
a|7-9-9-9-5-7-------------------------------|
e|5-7-7-7-3-5-------------------------------|

'Cause they know what's best for us

Chorus:

E|-------------------|
B|-------------------|
G|--7-7-5-5-4-4-3-3--|
D|--7-7-5-5-4-4-3-3--|
A|--5-5-3-3-2-2-1-1--|
E|-------------------|

Your whole world's coming down

E|-------------------|
B|-------------------|
G|--7-7-5-5-4-4-3-3--|
D|--7-7-5-5-4-4-3-3--|
A|--5-5-3-3-2-2-1-1--|
E|-------------------|

Close to the bottom, close to the sound

E|-------------------|
B|-------------------|
G|--7-7-5-5-4-4-3-3--|
D|--7-7-5-5-4-4-3-3--|
A|--5-5-3-3-2-2-1-1--|
E|-------------------|

Your whole world's let me down

E|-------------------|
B|-------------------|
G|--7-7-5-5-4-4-3-3--|
D|--7-7-5-5-4-4-3-3--|
A|--5-5-3-3-2-2-1-1--|
E|-------------------|

Drag me down to the under ground

Verses:

e|5-7-7-7-3-5-------------------------------|
b|5-7-7-7-3-5-------------------------------|
g|6-8-8-8-4-6-------------------------------|
d|7-9-9-9-5-7-------------------------------| 
a|7-9-9-9-5-7-------------------------------|
e|5-7-7-7-3-5-------------------------------|

Sifting through apocalypse


e|5-7-7-7-3-5-------------------------------|
b|5-7-7-7-3-5-------------------------------|
g|6-8-8-8-4-6-------------------------------|
d|7-9-9-9-5-7-------------------------------| 
a|7-9-9-9-5-7-------------------------------|
e|5-7-7-7-3-5-------------------------------|

Already knew it would come to this


e|5-7-7-7-3-5-------------------------------|
b|5-7-7-7-3-5-------------------------------|
g|6-8-8-8-4-6-------------------------------|
d|7-9-9-9-5-7-------------------------------| 
a|7-9-9-9-5-7-------------------------------|
e|5-7-7-7-3-5-------------------------------|

Just another game to play


e|5-7-7-7-3-5-------------------------------|
b|5-7-7-7-3-5-------------------------------|
g|6-8-8-8-4-6-------------------------------|
d|7-9-9-9-5-7-------------------------------| 
a|7-9-9-9-5-7-------------------------------|
e|5-7-7-7-3-5-------------------------------|

How many ways have I got to play?

e|5-7-7-7-3-5-------------------------------|
b|5-7-7-7-3-5-------------------------------|
g|6-8-8-8-4-6-------------------------------|
d|7-9-9-9-5-7-------------------------------| 
a|7-9-9-9-5-7-------------------------------|
e|5-7-7-7-3-5-------------------------------|

Hear them running faster now

e|5-7-7-7-3-5-------------------------------|
b|5-7-7-7-3-5-------------------------------|
g|6-8-8-8-4-6-------------------------------|
d|7-9-9-9-5-7-------------------------------| 
a|7-9-9-9-5-7-------------------------------|
e|5-7-7-7-3-5-------------------------------|

They wear the hooves of Satan's crowd

e|5-7-7-7-3-5-------------------------------|
b|5-7-7-7-3-5-------------------------------|
g|6-8-8-8-4-6-------------------------------|
d|7-9-9-9-5-7-------------------------------| 
a|7-9-9-9-5-7-------------------------------|
e|5-7-7-7-3-5-------------------------------|

You came to visit for just one day

e|5-7-7-7-3-5-------------------------------|
b|5-7-7-7-3-5-------------------------------|
g|6-8-8-8-4-6-------------------------------|
d|7-9-9-9-5-7-------------------------------| 
a|7-9-9-9-5-7-------------------------------|
e|5-7-7-7-3-5-------------------------------|

But now that you're here ,you here to stay

End:

E|-------------------|
B|-------------------|
G|--7-7-5-5-4-4-3-3--|
D|--7-7-5-5-4-4-3-3--|
A|--5-5-3-3-2-2-1-1--|
E|-------------------|

Your whole world's coming down

E|-------------------|
B|-------------------|
G|--7-7-5-5-4-4-3-3--|
D|--7-7-5-5-4-4-3-3--|
A|--5-5-3-3-2-2-1-1--|
E|-------------------|

Close to the bottom, close to the sound

E|-------------------|
B|-------------------|
G|--7-7-5-5-4-4-3-3--|
D|--7-7-5-5-4-4-3-3--|
A|--5-5-3-3-2-2-1-1--|
E|-------------------|

Your whole world's let me down

E|-------------------|
B|-------------------|
G|--7-7-5-5-4-4-3-3--|
D|--7-7-5-5-4-4-3-3--|
A|--5-5-3-3-2-2-1-1--|
E|-------------------|
            
Submit corrections

↑ Back to top | Tablatures and chords for acoustic guitar and electric guitar, ukulele, drums are parodies/interpretations of the original songs. You may use it for private study, scholarship, research or language learning purposes only