Home » G » Georges Brassens »

Georges Brassens - Trompe La Mort Chords

Artists:  A B C D E F G H I J K L M N O P Q R S T U V W X Y Z # 

Trompe La Mort Chords

(ver. 1) Click to play this song!
Georges Brassens
Intro (0:00)

e----------------------------------------|
b----------------------------------------|
g--4-6-7-9-6-7-9-11--4-6-7-9-6-6-7-9-11--|
d----------------------------------------| x2
a--2-4-5-7-4-5-7--9--2-4-5-7-4-4-5-7--9--|
e----------------------------------------|



Verse (0:13)

Bm                       E 
Avec cette neige à foison
 G                        F#7
Qui coiffe, coiffe ma toison,
 Bm 
On peut me croire vue de nez
A7                D  F#7
Blanchi sous le harnais.
Bm                           E
Eh bien, Mesdames et Messieurs,
 G                               F#7
C'est rien que de la poudre aux yeux,
 Bm
C'est rien que de la comédie,
F#7          Bm B7
Que de la parodie.
Em                             A7
C'est pour tenter de couper court
 D                   B7
A l'avance du temps qui court,
 Em                A7
De persuader ce vieux goujat
     D               B7
Que tout le mal est fait déjà.
 Em                      A7
Mais dessous la perruque j'ai
  D                            F#7
Mes vrais cheveux couleur de jais.
 B7                    E              Em
C'est pas demain la veille, bon Dieu !
   F#7     Bm
De mes adieux.



Bridge (1:03)

e----------------------------------------|
b----------------------------------------|
g--4-6-7-9-6-7-9-11--4-6-7-9-6-6-7-9-11--|
d----------------------------------------|
a--2-4-5-7-4-5-7--9--2-4-5-7-4-4-5-7--9--|
e----------------------------------------|



Verse (1:09)

Bm                       E 
Et si j'ai l'air moins guilleret,
 G                       F#7
Moins solide sur mes jarrets,
 Bm 
Si je chemine avec lenteur
         A7      D    F#7
D'un train de sénateur,
Bm                      E
N'allez pas dire "Il est perclus"
 G                         F#7
N'allez pas dire "Il n'en peut plus".
 Bm
C'est rien que de la comédie,
F#7          Bm B7
Que de la parodie.
Em                      A7
Histoire d'endormir le temps,
 D               B7
Calculateur impénitent,
 Em                      A7
De tout brouiller, tout embrouiller
   D                 B7
Dans le fatidique sablier.
 Em                    A7
En fait, l'envers du décor,
  D                            F#7
Comme à vingt ans, je trotte encore.
 B7                    E          Em
C'est pas demain la veille, bon Dieu !
   F#7     Bm
De mes adieux.



Bridge (1:58)

e----------------------------------------|
b----------------------------------------|
g--4-6-7-9-6-7-9-11--4-6-7-9-6-6-7-9-11--|
d----------------------------------------|
a--2-4-5-7-4-5-7--9--2-4-5-7-4-4-5-7--9--|
e----------------------------------------|



Verse (2:05)

Bm                       E 
Et si mon coeur bat moins souvent
 G                        F#7
Et moins vite qu'auparavant,
 Bm 
Si je chasse avec moins de zèle
           A7      D  F#7
Les gentes demoiselles,
Bm                         E
Pensez pas que je sois blasé
 G                            F#7
De leurs caresses, leurs baisers,
 Bm
C'est rien que de la comédie,
F#7          Bm B7
Que de la parodie.
Em                             A7
Pour convaincre le temps berné
 D                         B7
Que mes fêtes galantes sont terminées,
 Em                      A7
Que je me retire en coulisse,
     D                    B7
Que je n'entrerai plus en lice.
 Em                        A7
Mais je reste un sacré gaillard
  D                            F#7
Toujours actif, toujours paillard.
 B7                    E              Em
C'est pas demain la veille, bon Dieu !
   F#7     Bm
De mes adieux.



Bridge (2:55)

e----------------------------------------|
b----------------------------------------|
g--4-6-7-9-6-7-9-11--4-6-7-9-6-6-7-9-11--|
d----------------------------------------|
a--2-4-5-7-4-5-7--9--2-4-5-7-4-4-5-7--9--|
e----------------------------------------|



Verse (3:01)

Bm                       E 
Et si jamais au cimetière,
 G                        F#7
Un de ces quatre, on porte en terre,
 Bm 
Me ressemblant s'y tromper,
    A7        D  F#7
Un genre de macchabée,
Bm                         E
N'allez pas noyer le souffleur
 G                        F#7
En lachant la bonde vos pleurs,
 Bm
Ce sera rien que comédie
F#7          Bm B7
Rien que fausse sortie.
Em                             A7
Et puis, coup de théâtre, quand
 D                         B7
Le temps aura lèvé le camp,
 Em                      A7
Estimant que la farce est jouée
     D                    B7
Moi tout heureux, tout enjoué,
 Em                   A7
Je m'exhumerai du caveau
  D                  F#7
Pour saluer sous les bravos.
 B7                    E              Em
C'est pas demain la veille, bon Dieu !
   F#7     Bm
De mes adieux.



Outro (3:51)

e----------------------------------------|
b----------------------------------------|
g--4-6-7-9-6-7-9-11--4-6-7-9-6-6-7-9-11--|
d----------------------------------------| x2
a--2-4-5-7-4-5-7--9--2-4-5-7-4-4-5-7--9--|
e----------------------------------------|            
Submit corrections

↑ Back to top | Tablatures and chords for acoustic guitar and electric guitar, ukulele, drums are parodies/interpretations of the original songs. You may use it for private study, scholarship, research or language learning purposes only