» » »

George Gershwin - Swanee Tabs

Artists:  A B C D E F G H I J K L M N O P Q R S T U V W X Y Z # 

Swanee Tabs

(ver. 1) Click to play this song!
George Gershwin
 Rating:
4.3/5 (28 votes)

 Swanee lessons Tabs too difficult? Try these video lessons and learn fast
 
                [Verse]

e|---------------------------------------------------|
B|-----------------1-1---------------1-3-3---1-3-3---|
G|-----0---1-0---1-------0---1-0---1-------3-------3-|
D|---3---3-----3-------3---3-----3-------------------|
A|---------------------------------------------------|
E|---------------------------------------------------|

e|---1-----------------------------------------------|
B|-1---1-1---------------------1-1---------------1-3-|
G|---------3-1-0---0---1-0---1-------0---1-0---1-----|
D|---------------3---3-----3-------3---3-----3-------|
A|---------------------------------------------------|
E|---------------------------------------------------|

e|---------------1-----------------------------------|
B|-3---1-3-3---1---1---------------------------------|
G|---3-------3-------3-1-0---------------------------|
D|-------------------------3-------------------------|
A|---------------------------------------------------|
E|---------------------------------------------------|

[Chorus]

e|---------------------------------------------------|
B|---------------------------------------1-2-3---1-2-|
G|---2-2-2-0-0---2-0-0---0---------0-2-3-------3-----|
D|-------------3-------3---3-0---3-------------------|
A|-----------------------------3---------------------|
E|---------------------------------------------------|

e|---0-1-0-------------------------------------------|
B|-3-------3-1-3-1-0---------------------------------|
G|-------------------3-2-2-2-0-0---2-0-0---0---------|
D|-------------------------------3-------3---3-0---3-|
A|-----------------------------------------------3---|
E|---------------------------------------------------|

e|-----------0---------0-----------------------------|
B|-------1-2---3-2-3-4---3-1-------------------------|
G|-0-2-3---------------------3-2-0-------------------|
D|---------------------------------3-----------------|
A|---------------------------------------------------|
E|---------------------------------------------------|

[Bridge]

e|---------------------------------------------------|
B|-----------1-1-1-1-1---------------1---------------|
G|-----0---2-----------3-3-2---0---2---2---2-0-------|
D|-------3-----------------------3-------3-----3-3---|
A|---3-----------------------3---------------------3-|
E|---------------------------------------------------|

e|---------------------------------------------------|
B|-------1-1-1-1-1---------------1-------------------|
G|-0---2-----------3-3-2---0---2---2---2-0-----------|
D|---3-----------------------3-------3-----3-3-------|
A|-----------------------3---------------------------|
E|---------------------------------------------------|
            
Submit corrections


        Swanee lessons Hard to play? Try these video lessons and learn fast Swanee lessons
        
↑ Back to top | Tablatures and chords for acoustic guitar and electric guitar, ukulele, drums are parodies/interpretations of the original songs. You may use it for private study, scholarship, research or language learning purposes only