» » »

George Gershwin - Summertime Tabs

Artists:  A B C D E F G H I J K L M N O P Q R S T U V W X Y Z # 

Summertime Tabs

(ver. 1) Click to play this song!
George Gershwin
 Rating:
4.4/5 (5 votes)

 Summertime lessons Tabs too difficult? Try these video lessons and learn fast
 
                [Verse 1]
                Em                   Am6              C7   Em      Em
e|-----5/7----|-7-----------------|-----------------------------|--------|
B|----------8-|-8-----------------|--10------10--12---8----5----|--0-----|
G|------------|-9-----------------|--9---12-----------9----7----|--0-----|
D|------------|-------------------|--10---------------8----5----|--------|
A|------------|-7---------9/12--9-|--9---------------------7--7-|--------|
E|--0---------|----7--10----------|-------------------8---------|--0-----|
       Summer - time                 and the living  is   ea - sy


    Em             Am                                           B7                     C7               B7
e|--0--3--5/7--3---5--5-|------------------------------------|------------------------|---------------------|
B|-----------------5----|-------------------8---5---8--5---8-|--7-------7-----7----7--|-----8------8----7---|
G|-----------------5----|-------------------5-------5--------|--8-------8-----8----8--|-----9------9----8---|
D|----------------------|-----5--7/9--5--7-------------------|--7-------7-----7----7--|-----8------8----7---|
A|---------------0------|--7----------------0-------0--------|------------------------|---------------------|
E|--0-------------------|------------------------------------|--7----7-----7----7-----|--8------8-------7---|
    Fish are     jump-in'                  and the cotton is   high


                     Em                                        G6   Em      Em
e|-----3/7--7------|--7-------------------------------------|------------------|
B|--------------8--|--8--------------------10--8--10--10/12-|--8----5--------0-|
G|-----------------|--9-------------------------------------|--9----7--------0-|
D|-----------------|----------------------------------------|--9----5--------2-|
A|-----------------|--7--7-7------------7--7------7---------|--10---7--7-------|
E|--0--------------|--------7-7--10-10----------------------|-------------0----|
       Your Daddy's rich                    and your Momma's  good  look-in'


       G                     B7        Gm6     Em
e|------------------3--|-----7--------------------|
B|--0--3-----3---5-----|-----7---10----8---7---5--|
G|-----4--4------------|-----8---------7-------7--|
D|---------------------|---------------8-------5--|
A|---------------------|---------------7-------7--|
E|-----3---------------|--7-----------------------|
    So hush little baby,    don't   you      cry


[Verse 2]

                 Em                    Am6               C7   Em       Em
e|-----5/7--7-----7-----------------|-----------------------------|------------|
B|------------8---8-----------------|--10------10--12----8----5--5|-----0------|
G|----------------9-----------------|--9---12------------9----7--7|-----0------|
D|----------------------------------|--10----------------8----5--5|-----2------|
A|----------------7---------9/12--9-|--9----------------------7---|------------|
E|--0----------------7--10----------|--------------------8--------|--0---------|
    One of these mornings,             you're gonna rise up   sing --  ing


    Em             Am                                           B7                 C7              B7
e|--0--3--5/7--3---5--5-|----------------5-------------------|-------------------|---------------------|
B|-----------------5----|----------------5--8---5---8--5---8-|--7----------7-----|-----8------8----7---|
G|-----------------5----|-------------------5-------5--------|--8--------8---8---|-----9------9----8---|
D|----------------------|-----5--7/9--5--7-------------------|--7------7-------7-|-----8------8----7---|
A|---------------0------|--7----------------0-------0--------|-------------------|---------------------|
E|--0-------------------|------------------------------------|--7----7-----7-----|--8------8-------7---|
    Then you'll spread your wings, and you'll take to the       sky


                     Em                                   G6   Em      Em
e|-----3/7--7------|--7------------------------------7-|---------------------|
B|--------------8--|--8-------------------10--8--10----|--8----5-------0-----|
G|-----------------|--9--------------------------------|--9----7-------0-----|
D|-----------------|-----------------------------------|--9----5-------2-----|
A|-----------------|--7--77------------7--7------7-----|--10---7--7----------|
E|--0--------------|--------77--10-10------------------|-------------0-------|
    But till that     morning,  there's a nothin' can harm you


       G                      B7        Gm6         Em
e|--------------------3-|-----7------------------|--0----------------|
B|--0--3--------3--5--3-|-----7---10----8---7----|--0----------------|
G|-----4----4---------4-|-----8---------7--------|--0----------------|
D|----------------------|---------------8--------|-------------------|
A|----------------------|---------------7--------|-------------------|
E|-----3--------------3-|--7-------------------0-|-------------------|
    With daddy   and mammy,   standing              by


[Verse 3]

              Em                    Am6             C7   Em      Em
e|-----5/7-----7-----------------|--------------------------|--------|
B|----------8--8-----------------|--10------9--12---8----5--|-----0--|
G|-------------9-----------------|--9---12----------9----7--|-----0--|
D|-------------------------------|--10--------------8----5--|-----2--|
A|-------------7---------9/12--9-|--9--------------------7--|--------|
E|--0-------------7--10----------|------------------8-------|--0-----|
       Summertime                   and the living  is   ea   -   sy


    Em             Am                                          B7                      C7              B7
e|--0--3--5/7--3---5--5-|-----------------------------------|------------------------|--------------------|
B|-----------------5----|-------------------8---5---8--5--8-|--7-------7-----7----7--|-----8------8----7--|
G|-----------------5----|-------------------5-------5-------|--8-------8-----8----8--|-----9------9----8--|
D|----------------------|-----5--7/9--5--7------------------|--7-------7-----7----7--|-----8------8----7--|
A|---------------0------|--7----------------0-------0-------|------------------------|--------------------|
E|--0-------------------|-----------------------------------|--7----7-----7----7-----|--8------8-------7--|
    Fish are     jump-in'                  and the cotton is   high


                     Em                            G6   Em       Em
e|-----3/7--7------|--7-------------------------|-------------------|
B|--------------8--|--8---8/10--8--8/10--10/12--|--8----5--------0--|
G|-----------------|--9-------------------------|--9----7--------0--|
D|-----------------|----------------------------|--9----5--------2--|
A|-----------------|--7---7/9------7/9----------|--10---7--7--------|
E|--0--------------|----------------------------|-------------0-----|
       Your Daddy's rich    and your Momma's     good  look   -  in'


       G                    B7        Gm6        Em        Dm7sus2    D7+   B7   Em
e|-----------------3--|-----7-------------------------|--------------------------0-|
B|--0--3-----3--5--3--|-----7---10----8---7------5--5-|-----5--5------4-----0----0-|
G|-----4--4--------4--|-----8---------7----------7----|-----5---------5-----2----0-|
D|--------------------|---------------8----------5----|-----3---------4-----1------|
A|--------------------|---------------7-------7-------|--5------------5-----2------|
E|-----3-----------3--|--7----------------------------|--------------------------0-|
    So hush little baby,    don't   you      cry
            
Submit corrections


        Summertime lessons Hard to play? Try these video lessons and learn fast Summertime lessons
        
↑ Back to top | Tablatures and chords for acoustic guitar and electric guitar, ukulele, drums are parodies/interpretations of the original songs. You may use it for private study, scholarship, research or language learning purposes only