» » »

Genesis - No Son Of Mine Tabs

Artists:  A B C D E F G H I J K L M N O P Q R S T U V W X Y Z # 

No Son Of Mine Tabs

(ver. 1) Click to play this song!
Genesis
 Rating:
4/5 (4 votes)

 No Son Of Mine lessons Tabs too difficult? Try these video lessons and learn fast
 
                Gtr I (E A D G B E) - 'Electric Guitar 1'
Gtr II (E A D G B E) - 'Electric Guitar 2'
Gtr III (E A D G B E) - 'Electric Guitar 3'
Gtr IV (E A D G B E) - 'Electric Guitar 4'


 Intro
  Q=106
  N.C.
 4/4
  Gtr I
  Wx4
|--------|
|--------|
|--------|
|--------|
|--------|
|--------|


    E5
    E    +Q.     +Q    +E  E   W
||---------------------------|-----------------|
||o-0----(0)-----(0)---(0)---|-----------------|
||--2b4==(2)-----(2)r==(2)-0-|-----------------|
||-------------------------0-|-----------------|
||o--------------------------|-----------------|
||---------------------------|-----------------|
|
|   Gtr II
|   PM------------------------------------------
|   E     E  E E  E  E  E  E   E E E E E E E E
||---------------------------|-----------------|
||o--------------------------|-----------------|
||---------------------------|-----------------|
||--2-----2--2-2--2--2--2--2-|-2-2-2-2-2-2-2-2-|
||o-2-----2--2-2--2--2--2--2-|-2-2-2-2-2-2-2-2-|
||--0-----0--0-0--0--0--0--0-|-0-0-0-0-0-0-0-0-|


  E    +Q.     +Q    +E  E   W
|--------------------------|-------------------||
|-0----(0)-----(0)---(0)---|------------------o||
|-2b4==(2)-----(2)r==(2)-0-|-------------------||
|------------------------0-|-------------------||
|--------------------------|------------------o||
|--------------------------|-------------------||
|
|------------------------------------------|
| E     E  E E  E  E  E  E   E E E E E E E E
|--------------------------|-------------------||
|--------------------------|------------------o||
|--------------------------|-------------------||
|-2-----2--2-2--2--2--2--2-|-2-2-2-2-2-2-2-2---||
|-2-----2--2-2--2--2--2--2-|-2-2-2-2-2-2-2-2--o||
|-0-----0--0-0--0--0--0--0-|-0-0-0-0-0-0-0-0---||


   1st Verse
    E5
    E    +Q.     +Q    +E  E   W
||---------------------------|-----------------|
||o-0----(0)-----(0)---(0)---|-----------------|
||--2b4==(2)-----(2)r==(2)-0-|-----------------|
||-------------------------0-|-----------------|
||o--------------------------|-----------------|
||---------------------------|-----------------|
|
|   PM------------------------------------------
|   E     E  E E  E  E  E  E   E E E E E E E E
||---------------------------|-----------------|
||o--------------------------|-----------------|
||---------------------------|-----------------|
||--2-----2--2-2--2--2--2--2-|-2-2-2-2-2-2-2-2-|
||o-2-----2--2-2--2--2--2--2-|-2-2-2-2-2-2-2-2-|
||--0-----0--0-0--0--0--0--0-|-0-0-0-0-0-0-0-0-|


  E    +Q.     +Q    +E  E   W                 4x
|--------------------------|-------------------||
|-0----(0)-----(0)---(0)---|------------------o||
|-2b4==(2)-----(2)r==(2)-0-|-------------------||
|------------------------0-|-------------------||
|--------------------------|------------------o||
|--------------------------|-------------------||
|
|------------------------------------------|
| E     E  E E  E  E  E  E   E E E E E E E E   4x
|--------------------------|-------------------||
|--------------------------|------------------o||
|--------------------------|-------------------||
|-2-----2--2-2--2--2--2--2-|-2-2-2-2-2-2-2-2---||
|-2-----2--2-2--2--2--2--2-|-2-2-2-2-2-2-2-2--o||
|-0-----0--0-0--0--0--0--0-|-0-0-0-0-0-0-0-0---||


 2nd Verse
  Em                C                 D                 B
  Gtr III
  PM------------------------------------------------------------------|
  E E E E E E E E   E E E E E E E E   E E E E E E E E   E E E E E E E E
|-----------------|-----------------|-----------------|-----------------|
|-----------------|-----------------|-----3-----3-----|-----------------|
|-----0-----0-----|---5-5-----5-----|---2-----2-----0-|-----4-2-4-2-0---|
|---0-----0-----0-|---------5-----5-|-0-----0-----0---|---4-----------4-|
|-2-----2-----2---|-3-----3-----3---|-----------------|-2---------------|
|-----------------|-----------------|-----------------|-----------------|
|
| Gtr II
| PM----|
| E E E E H         W                 W                 W
|-----------------|-----------------|-----------------|-----------------|
|-----------------|-----------------|-----------------|-----------------|
|-----------------|-----------------|-----------------|-----------------|
|-2---2-2---------|-----------------|-----------------|-----------------|
|-----------------|-----------------|-----------------|-----------------|
|---0-------------|-----------------|-----------------|-----------------|


  Em                D                 Bm7               C
  PM------------------------------------------------------------------|
  E E E E E E E E   E E E E E E E E   E E E E E E E E   E E E E E E E E
|-----------------|-----------------|-----------------|-----------------|
|-----------------|-----------3-----|-----3-----3---3-|-----5-----5---5-|
|-----0-----0-----|-----2---2-----0-|---2-----2-------|-0-----0-2---2---|
|---0-----0-----0-|---4---0-----0---|-----------------|---2-------------|
|-2-----2-----2---|-5---------------|-2-----2-----2---|-----------------|
|-----------------|-----------------|-----------------|-----------------|


  Em                C                 D                 B
  PM------------------------------------------------------------------|
  E E E E E E E E   E E E E E E E E   E E E E E E E E   E E E E E E E E
|-----------------|-----------------|-----------------|-----------------|
|-----------------|-----------5-----|-----3-----3-----|-----------------|
|-----0-----0-----|-----5-----5-----|---2-----2-----0-|-----4-----4-----|
|---0-----0-----0-|---5-----5-----5-|-0-----0-----0---|---4-----4-----4-|
|-2-----2-----2---|-3-----3-----3---|-----------------|-2-----2-----2---|
|-----------------|-----------------|-----------------|-----------------|


  D                 A                 C                 Dsus2/A
  PM------------------------------------------------------------------|
  E E E E E E E E   E E E E E E E E   E E E E E E E E   E E E E E E E E
|-----------------|-----------------|-----------------|-----------------||
|-----3---3-3-----|-----2-----2-----|-----1-----1-----|-----------------||
|---2-----2-----2-|---2-----2-----2-|---0-----0-----0-|-----0-----0---0-||
|-0-----0-----0---|-2-----2-----2---|-2-----2-----2---|---0-----0-------||
|-----------------|-----------------|-----------------|-0-----0-----0---||
|-----------------|-----------------|-----------------|-----------------||


 Pre-Chorus
  $
  E5
  PM------------------------------------------------------------------|
  E E E E E E E E   E E E E E E E E   E E E E E E E E   E E E E E E E E
|-----------------|-----------------|-----------------|-----------------|
|-----------------|-----------------|-----------------|-----------------|
|-----------------|-----------------|-----------------|-----------------|
|-9-9-9-9-9-9-9-9-|-9-9-9-9-9-9-9-9-|-9-9-9-9-9-9-9-9-|-9-9-9-9-9-9-9-9-|
|-7-7-7-7-7-7-7-7-|-7-7-7-7-7-7-7-7-|-7-7-7-7-7-7-7-7-|-7-7-7-7-7-7-7-7-|
|-----------------|-----------------|-----------------|-----------------|


  PM------------------------------------------------------------------|
  E E E E E E E E   E E E E E E E E   E E E E E E E E   E E E E E E E E
|-----------------|-----------------|-----------------|-----------------|
|-----------------|-----------------|-----------------|-----------------|
|-----------------|-----------------|-----------------|-----------------|
|-9-9-9-9-9-9-9-9-|-9-9-9-9-9-9-9-9-|-9-9-9-9-9-9-9-9-|-9-9-9-9-9-9-9-9-|
|-7-7-7-7-7-7-7-7-|-7-7-7-7-7-7-7-7-|-7-7-7-7-7-7-7-7-|-7-7-7-7-7-7-7-7-|
|-----------------|-----------------|-----------------|-----------------|


  G5
  PM---------------------------------------
  E E S S E E E E E   S S E E E E E S S E
|-------------------|---------------------|
|-------------------|-8-8-8-8---8---------|
|-------------------|-7-7-7-7-7-7-7-7-7-7-|
|-------------------|-5-5-5-5-5---5-5-5-5-|
|-5-5-5-5-5-5-5-5-5-|---------------------|
|-3-3-3-3-3-3-3-3-3-|---------------------|


  A5                  N.C.
                        Gtr I
 ---------------------|
  E E S S E E E E E   E E E E E E E E
|-------------------|-----------------||
|-------------------|-----------------||
|-------------------|-9-7-7-7-7-7-7-7-||
|-----------------7-|-----------------||
|-7-7-7-7-7-7-7-7---|-----------------||
|-5-5-5-5-5-5-5-5---|-----------------||


   Chorus
    G5
                                  PM|                               PM
    Q.   E E. S +E  E   Q  Q  +E  E E E   Q.   E Q.   E   Q  Q  +E  E E E   5x
||--------------------|-----------------|---------------|-------------------||
||o------8-8--------8-|-8--8--(8)-----8-|-8----8------8-|----8--(8)---8----o||
||--7----7-7--7-(7)-7-|-7--7--(7)---5-7-|-7----7-7----7-|-7--7--(7)-----7---||
||--5---------5-(5)---|-----------5-----|--------5------|-5---------5-------||
||o-------------------|-----------------|---------------|------------------o||
||--------------------|-----------------|---------------|-------------------||


                                                                 To Coda
                                PM|                               PM
  Q.   E E. S +E  E   Q  Q  +E  E E E   Q.   E Q.   E   Q  Q  +E  E E E
|-------------------|-----------------|---------------|------------------||
|------8-8--------8-|-8--8--(8)-----8-|-8----8------8-|----8--(8)---8----||
|-7----7-7--7-(7)-7-|-7--7--(7)---5-7-|-7----7-7----7-|-7--7--(7)-----7--||
|-5---------5-(5)---|-----------5-----|--------5------|-5---------5------||
|-------------------|-----------------|---------------|------------------||
|-------------------|-----------------|---------------|------------------||


 Interlude
  N.C.
  Gtr I
  E    +Q.   +Q   +E  E   W          E    +Q.   +Q   +E  E    W
|-----------------------|----------|-----------------------|-----------------|
|-0----(0)---(0)--(0)---|----------|-0----(0)---(0)--(0)---|-----------------|
|-2b4==(2)---(2)r=(2)-0-|----------|-2b4==(2)---(2)r=(2)-0-|-----------------|
|---------------------0-|----------|---------------------0-|-----------------|
|-----------------------|----------|-----------------------|-----------------|
|-----------------------|----------|-----------------------|-----------------|
|
| Gtr IV
| W                       W          H           Q    E  E   +H     +E  E Q
|-----------------------|----------|-----------------------|-----------------|
|-----------------------|----------|-----------------------|------------x----|
|-----------------------|----------|-----------------------|------------x----|
|-----------------------|----------|-----------------------|------------x----|
|-----------------------|----------|-----------------------|-----------------|
|-----------------------|----------|---------------------0-|-(0)----(0)------|


  E    +Q.   +Q   +E  E   W
|-----------------------|----------|
|-0----(0)---(0)--(0)---|----------|
|-2b4==(2)---(2)r=(2)-0-|----------|
|---------------------0-|----------|
|-----------------------|----------|
|-----------------------|----------|
|
| W                       W
|-----------------------|----------|
|-----------------------|----------|
|-----------------------|----------|
|-----------------------|----------|
|-----------------------|----------|
|-----------------------|----------|


  E    +Q.   +Q    +E  E     W
|------------------------|-------------------||
|-0----(0)---(0)---(0)---|-------------------||
|-2b4==(2)---(2)r==(2)-0-|-------------------||
|----------------------0-|-------------------||
|------------------------|-------------------||
|------------------------|-------------------||
|
| H           E  E  E  E   a E E E E E E E E
|------------------------|-------0-0-0-0-0-0-||
|----------------3--3--3-|-3h5-3---3-3-3-3-3-||
|------------------------|-------------------||
|------------------------|-------------------||
|------------------------|-------------------||
|------------------------|-------------------||


 3rd Verse
      Em                  C
  Gtr I
  Q   E E E E Q       Q   E E E E Q
|-----7-----7-------|-----8-----8-----|
|-----8-----8-------|-----8-----8-----|
|-----9-----9-------|-----9-----9-----|
|-------------------|-----------------|
|-------------------|-----------------|
|-------------------|-----------------|
|
| Gtr II
| PM-----------------------------------
| E E E E E E E S S   E E E E E E E E
|-------------------|-----------------|
|-------------------|-----------------|
|-------------------|-----------------|
|-9-9-9-9-9-9-9-9-x-|-5-5-5-5-5-5-5-5-|
|-7-7-7-7-7-7-7-7-x-|-3-3-3-3-3-3-3-3-|
|-------------------|-----------------|


      D                   Bsus4
  Q   E E E E Q       Q   E E E E Q
|-----5-----5-------|-----2-----2---------|
|-----7-----7-------|-----5-----5---------|
|-----7-----7-------|-----4-----4---------|
|-------------------|---------------------|
|-------------------|---------------------|
|-------------------|---------------------|
|
|-------------------------------------|
| E E E E E E E S S   E E E E E E E S S
|-------------------|---------------------|
|-------------------|---------------------|
|-------------------|---------------------|
|-7-7-7-7-7-7-7-7-x-|-4-4-4-4-4-4-4-4-xS==|
|-5-5-5-5-5-5-5-5-x-|-2-2-2-2-2-2-2-2-xS==|
|-------------------|---------------------|


      Em                D                 Bm                C
  Q   E E E E Q     Q   E E E E Q     Q   E E E E Q     Q   E E E E Q
|-----7-----7-----|-----5-----5-----|-----7-----7-----|-----8-----8--------|
|-----8-----8-----|-----7-----7-----|-----7-----7-----|-----8-----8--------|
|-----9-----9-----|-----7-----7-----|-----7-----7-----|-----9-----9--------|
|-----------------|-----------------|-----------------|--------------------|
|-----------------|-----------------|-----------------|--------------------|
|-----------------|-----------------|-----------------|--------------------|
|
| PM--------------------------------------------------------------------|
| E E E E E E E E   E E E E E E E E   E E E E E E E E   E E E E E E E S S
|-----------------|-----------------|-----------------|--------------------|
|-----------------|-----------------|-----------------|--------------------|
|-----------------|-----------------|-----------------|--------------------|
|-9-9-9-9-9-9-9-9-|-7-7-7-7-7-7-7-7-|-4-4-4-4-4-4-4-4-|-5-5-5-5-5-5-5-5-xS=|
|-7-7-7-7-7-7-7-7-|-5-5-5-5-5-5-5-5-|-2-2-2-2-2-2-2-2-|-3-3-3-3-3-3-3-3-xS=|
|-----------------|-----------------|-----------------|--------------------|


      Em                  C
  Q   E E E E Q       Q   E E E E Q
|-----7-----7-------|-----8-----8-----|
|-----8-----8-------|-----8-----8-----|
|-----9-----9-------|-----9-----9-----|
|-------------------|-----------------|
|-------------------|-----------------|
|-------------------|-----------------|
|
| PM-----------------------------------
| E E E E E E E S S   E E E E E E E E
|-------------------|-----------------|
|-------------------|-----------------|
|-------------------|-----------------|
|-9-9-9-9-9-9-9-9-x-|-5-5-5-5-5-5-5-5-|
|-7-7-7-7-7-7-7-7-x-|-3-3-3-3-3-3-3-3-|
|-------------------|-----------------|


      D                   Bsus4
  Q   E E E E Q       Q   E E E E Q
|-----5-----5-------|-----2-----2---------|
|-----7-----7-------|-----5-----5---------|
|-----7-----7-------|-----4-----4---------|
|-------------------|---------------------|
|-------------------|---------------------|
|-------------------|---------------------|
|
|-------------------------------------|
| E E E E E E E S S   E E E E E E E S S
|-------------------|---------------------|
|-------------------|---------------------|
|-------------------|---------------------|
|-7-7-7-7-7-7-7-7-x-|-4-4-4-4-4-4-4-4-xS==|
|-5-5-5-5-5-5-5-5-x-|-2-2-2-2-2-2-2-2-xS==|
|-------------------|---------------------|


                                                          D.S. al Coda
      D                 A                 C                 G
  Q   E E E E Q     Q   E E E E Q     Q   E E E E Q     Q   E E E E Q
|-----5-----5-----|-----5-----5-----|-----8-----8-----|-----7-----7-----||
|-----7-----7-----|-----5-----5-----|-----8-----8-----|-----8-----8-----||
|-----7-----7-----|-----6-----6-----|-----9-----9-----|-----7-----7-----||
|-----------------|-----------------|-----------------|-----------------||
|-----------------|-----------------|-----------------|-----------------||
|-----------------|-----------------|-----------------|-----------------||
|
| PM------------------------------------------------------------------|
| E E E E E E E E   E E E E E E E E   E E E E E E E E   E E E E E E E E
|-----------------|-----------------|-----------------|-----------------||
|-----------------|-----------------|-----------------|-----------------||
|-----------------|-----------------|-----------------|-----------------||
|-7-7-7-7-7-7-7-7-|-----------------|-5-5-5-5-5-5-5-5-|-----------------||
|-5-5-5-5-5-5-5-5-|-7-7-7-7-7-7-7-7-|-3-3-3-3-3-3-3-3-|-5-5-5-5-5-5-5-5-||
|-----------------|-5-5-5-5-5-5-5-5-|-----------------|-3-3-3-3-3-3-3-3-||


 Outro
  &
  E5                     C5
    Gtr IV
            ~~~
  E  E E E +Q    Q       E E +S  S E a E.   S S E.
|----------------------|-----------------------------|
|----------------------|-----------------------------|
|----7-7-9-(9)---------|---7-(7)---7-7h9----7p5h7----|
|----------------------|---------9-------------------|
|----------------------|-----------------------------|
|----------------------|-----------------------------|
|
|   Gtr II
| PM--------------------------------------------------
| E  E E E  E  E E S S   E E  E    E   E  E   E    E
|----------------------|-----------------------------|
|----------------------|-----------------------------|
|----------------------|-----------------------------|
|-9--9-9-9--9--9-9-9-x-|-5-5--5----5---5--5---5----5-|
|-7--7-7-7--7--7-7-7-x-|-3-3--3----3---3--3---3----3-|
|----------------------|-----------------------------|


  D5                     B5
   \1/
                           PM----------|
  +Q     Q   H           E E E E E E E E
|----------------------|---------------------|
|----------------------|---------------------|
|-(7)------------------|---------9---9-------|
|----------------------|-----9-----9---9-----|
|----------------------|---9---9-------------|
|----------------------|---------------------|
|
|----------------------------------------|
|  E   E E E E E E S S   E E E E E E E S S
|----------------------|---------------------|
|----------------------|---------------------|
|----------------------|---------------------|
|--7---7-7-7-7-7-7-7-x-|-4-4-4-4-4-4-4-4-xS==|
|--5---5-5-5-5-5-5-5-x-|-2-2-2-2-2-2-2-2-xS==|
|----------------------|---------------------|


  E5                                    C5
  E E   S  S  S  S  +E   E  S  S  E     E E   S  S  E E   Q         +E
|-------------------------------------|----------------------------------|
|-------------------------------------|----------------------------------|
|---------------12-(12)-12------------|------------12---[12]b14r==([12])-|
|------14p12---------------14p12------|------10h12-----------------------|
|---7/-------14------------------14---|---7/-----------------------------|
|-------------------------------------|----------------------------------|
|
| PM----------------------------------------------------------------------
| E E   E     E      E   E  E     S S   E E   E     E E   E     E    E
|-------------------------------------|----------------------------------|
|-------------------------------------|----------------------------------|
|-------------------------------------|----------------------------------|
|-9-9---9-----9------9---9--9-----9-x-|-5-5---5-----5-5---5-----5----5---|
|-7-7---7-----7------7---7--7-----7-x-|-3-3---3-----3-3---3-----3----3---|
|-------------------------------------|----------------------------------|


  D5                                  B5
   S  S  S  S  S  E.    +H            H       E E   S  S  S  S
|-----------------------------------|--------------------------------|
|-10----10-------10----(10)---------|--------------------12----------|
|----11----11-11--------------------|--------------12-------14pb16===|
|-----------------------------------|-----------9/----14-------------|
|-----------------------------------|--------------------------------|
|-----------------------------------|--------------------------------|
|
|-----------------------------------------------------------|
|  E     E     E     E   E  E E S S   E E E E E E   E     S  S
|-----------------------------------|--------------------------------|
|-----------------------------------|--------------------------------|
|-----------------------------------|--------------------------------|
|--7-----7-----7-----7---7--7-7-7-x-|-4-4-4-4-4-4---4-----4--xS======|
|--5-----5-----5-----5---5--5-5-5-x-|-2-2-2-2-2-2---2-----2--xS======|
|-----------------------------------|--------------------------------|


  E5                            C5
                                         |--3---|
   +E..   +T   E  E H            E      +S   S  S  S  S  E  +Q    Q
|-----------------------------|---------------------------------------|
|-----------------------------|-------------------13-13---------------|
|-(14)r==(14)-----------------|-14pb16r(14)p12----12-12---------------|
|-------------14\-------------|----------------14-------14-(14)-------|
|-----------------------------|---------------------------------------|
|-----------------------------|---------------------------------------|
|
|   PM-----------------------------------------------------------------
|   E  E       E  E E E E S S    E       E         E     E   E  E E E
|-----------------------------|---------------------------------------|
|-----------------------------|---------------------------------------|
|-----------------------------|---------------------------------------|
|---9--9-------9--9-9-9-9-9-x-|--5-------5---------5-----5---5--5-5-5-|
|---7--7-------7--7-7-7-7-7-x-|--3-------3---------3-----3---3--3-3-3-|
|-----------------------------|---------------------------------------|


  D5                                   B5
                                        ~~~~~~~~~~~~~~
  E Q     a  a  E  +E      +Q    E      Q    Q    +E  E Q
|------------------------------------|--------------------------|
|--------------15-(15)b17-(15)-------|--------------------------|
|-----------14-----------------------|-16---16---(16)-x---------|
|---7/---16--------------------------|----------------x---------|
|------------------------------------|------------------7/------|
|------------------------------------|--------------------------|
|
|------------------------------------------------------------|
| E E  E        E   E       E  E S S    E E  E E   E  E E  S S
|------------------------------------|--------------------------|
|------------------------------------|--------------------------|
|------------------------------------|--------------------------|
|-7-7--7--------7---7-------7--7-7-x-|--4-4--4-4---4--4-4--4-xS=|
|-5-5--5--------5---5-------5--5-5-x-|--2-2--2-2---2--2-2--2-xS=|
|------------------------------------|--------------------------|


  E5                            C5
               ~~~~~~~
   E  E  S  S  E  +H             Q    S  E.    +E       +Q.
|-----------------------------|---------------------------------|
|-------------17-(17)---------|-17---17-17----(17)b19==(17)r====|
|-------14s16-----------------|---------------------------------|
|-12-12-14--------------------|---------------------------------|
|-----------------------------|---------------------------------|
|-----------------------------|---------------------------------|
|
|  PM------------------------------------------------------------
|  E  E  E     E   E  E E S S    E E  E     E   E        E  E E
|-----------------------------|---------------------------------|
|-----------------------------|---------------------------------|
|-----------------------------|---------------------------------|
|--9--9--9-----9---9--9-9-9-x-|--5-5--5-----5---5--------5--5-5-|
|--7--7--7-----7---7--7-7-7-x-|--3-3--3-----3---3--------3--3-3-|
|-----------------------------|---------------------------------|


  D5                                B5
   E  S  S  S  S  E  E  E  Q        E E S S E S S E E S S
|---------------------------------|------------------------|
|-17-17-17-17-17-17-17-15---------|-x----------------------|
|---------------------------------|-x-------------7-9-x-x--|
|---------------------------------|-x-------5-7s9-----x-x--|
|---------------------------------|-----5s7-----------x-x--|
|-------------------------17\-----|---0--------------------|
|
|-------------------------------------------------------|
|  E  E     E     E  E  E  E  S S   E E E   E E   E E S S
|---------------------------------|------------------------|
|---------------------------------|------------------------|
|---------------------------------|------------------------|
|--7--7-----7-----7--7--7--7--7-x-|-4-4-4---4-4---4-4-4-xS=|
|--5--5-----5-----5--5--5--5--5-x-|-2-2-2---2-2---2-2-2-xS=|
|---------------------------------|------------------------|


  E5                                 C5
                             ~~~~~~~~~~~~~
        |--3--|                              |--3--|
  E  E  S  S  S  E  E  E  a  Q        +Q     S  S  S  E  +Q     E  E
|----------------------------------|---------------------------------|
|---12----------------11-----------|---------------------------12----|
|------15p14p12----------12h14-----|-(14)---14p12----12-(12)------12-|
|---------------14-14--------------|--------------14-----------------|
|----------------------------------|---------------------------------|
|-0--------------------------------|---------------------------------|
|
| PM------------------------------------------------------------------
| E  E  E        E  E  E     E S S     E  E  E        E   E  E  E  E
|----------------------------------|---------------------------------|
|----------------------------------|---------------------------------|
|----------------------------------|---------------------------------|
|-9--9--9--------9--9--9-----9-9-x-|---5--5--5--------5---5--5--5--5-|
|-7--7--7--------7--7--7-----7-7-x-|---3--3--3--------3---3--3--3--3-|
|----------------------------------|---------------------------------|


  D5                          B5
                               ~~                    ~~
   E  E  E  E  +Q.      E      Q   Q   E  E     +E   E
|---------------------------|------------17b19r(17)-17-----|
|-15----12-15-(15)-----17---|-17---------------------------|
|----14---------------------|------------------------------|
|---------------------------|------------------------------|
|---------------------------|------------------------------|
|---------------------------|------------------------------|
|
|------------------------------------------------------|
|  E  E  E  E   E  E E  S S    E E E E E  E      E   S S
|---------------------------|------------------------------|
|---------------------------|------------------------------|
|---------------------------|------------------------------|
|--7--7--7--7---7--7-7--7-x-|--4-4-4-4-4--4------4---4-xS==|
|--5--5--5--5---5--5-5--5-x-|--2-2-2-2-2--2------2---2-xS==|
|---------------------------|------------------------------|


  E5                      C5
    ~~~~~~~~                         ~~~~~~~
   +Q     H       Q       E  E    E  E  +Q    E  E
|-(17)---15-------------|---17b19---15-(15)-----14b15==|
|-----------------------|------------------------------|
|-----------------------|---------x--------------------|
|-----------------------|------------------------------|
|-----------------------|------------------------------|
|-----------------------|------------------------------|
|
|   PM--------------------------------------------------
|   E  E  E E E E E S S   E  E    E  E   E  E E  E
|-----------------------|------------------------------|
|-----------------------|------------------------------|
|-----------------------|------------------------------|
|---9--9--9-9-9-9-9-9-x-|-5--5----5--5---5--5-5--5-----|
|---7--7--7-7-7-7-7-7-x-|-3--3----3--3---3--3-3--3-----|
|-----------------------|------------------------------|


  D5                                B5
                                                                 PM|
                                       |--3--|  |--3--|
   +E   +S   S  Q    +E   E Q       E  S  S  S  S  S  S  E  E  E E E
|-(14)r(14)p12--------------------|---15p14p12-14p12----14-14\-----------|
|--------------15---(15)\---------|------------------15------------------|
|---------------------------------|--------------------------------------|
|---------------------------------|------------------------------9-9S====|
|---------------------------------|--------------------------------------|
|---------------------------------|--------------------------------------|
|
|--------------------------------------------------------------------|
|   E    E      E E   E   E E S S   E  E        E        E  E  E E S S
|---------------------------------|--------------------------------------|
|---------------------------------|--------------------------------------|
|---------------------------------|--------------------------------------|
|---7----7------7-7---7---7-7-7-x-|-4--4--------4--------4--4--4-4-4-xS==|
|---5----5------5-5---5---5-5-5-x-|-2--2--------2--------2--2--2-2-2-xS==|
|---------------------------------|--------------------------------------|


  E5                         C5
            ~~~~~~~
                                |--3--|
   E  E  E  E  +H            E  S  S  S  S  S  E  +E   E Q
|--------------------------|---------------------------------|
|----------15-(15)---------|---12h13p12----------------------|
|-------12-----------------|------------14-12-14-(14)\-------|
|-12-14--------------------|---------------------------------|
|--------------------------|---------------------------------|
|--------------------------|---------------------------------|
|
|  PM---------------------------------------------------------
|  E  E  E  E   E  E E S S   E  E        E     E   E   E E E
|--------------------------|---------------------------------|
|--------------------------|---------------------------------|
|--------------------------|---------------------------------|
|--9--9--9--9---9--9-9-9-x-|-5--5--------5-----5---5---5-5-5-|
|--7--7--7--7---7--7-7-7-x-|-3--3--------3-----3---3---3-3-3-|
|--------------------------|---------------------------------|


  D5
     |--3--|
  E  S  S  S  S  S  E  +Q     Q
|------------------------------------|
|---12h13p12-------------------------|
|------------14-12-14-(14)\----------|
|------------------------------------|
|------------------------------------|
|------------------------------------|
|
|---------------------------------|
| E  E        E     E   E   E E S S
|------------------------------------|
|------------------------------------|
|------------------------------------|
|-7--7--------7-----7---7---7-7-7-x--|
|-5--5--------5-----5---5---5-5-5-x--|
|------------------------------------|


  B5                                     E5
  E  S  S  S  S  S  S  E  S  S  E  E      E  +E   Q    H
|--------------------------------------|-------------------------|
|---------------------------------17---|-17-(17)-17\-------------|
|---------------------12-12-12-14------|-------------------------|
|---------12-14p12---------------------|-------------------------|
|---14-14----------14------------------|-------------------------|
|--------------------------------------|-------------------------|
|
| PM--------------------------------------------------------------
| E  E     E     E     E  E     E  S S    E   E   E  E E E E S S
|--------------------------------------|-------------------------|
|--------------------------------------|-------------------------|
|--------------------------------------|-------------------------|
|-4--4-----4-----4-----4--4-----4--4-xS|==9---9---9--9-9-9-9-9-x-|
|-2--2-----2-----2-----2--2-----2--2-xS|==7---7---7--7-7-7-7-7-x-|
|--------------------------------------|-------------------------|


  C5                                  D5
                       ~~~~~~~                  ~~
     |--3--|  |--3--|
  E  S  S  S  S  S  S  E  +E  E Q      E  S  S  H       Q
|-----------------------------------|-------------------------*|
|---19p17p15-17-15----17-(17)-------|-19-17p15-17-------------*|
|------------------17---------------|-------------------------*|
|-----------------------------------|-------------------------*|
|-----------------------------------|-------------------------*|
|-----------------------------------|-------------------------*|
|
|-----------------------------------------------------------|
| E  E        E        E   E  E E E    E  E     E E E E E S S
|-----------------------------------|-------------------------*|
|-----------------------------------|-------------------------*|
|-----------------------------------|-------------------------*|
|-5--5--------5--------5---5--5-5-5-|--7--7-----7-7-7-7-7-7-x-*|
|-3--3--------3--------3---3--3-3-3-|--5--5-----5-5-5-5-5-5-x-*|
|-----------------------------------|-------------------------*|
            
Submit corrections


        No Son Of Mine lessons Hard to play? Try these video lessons and learn fast No Son Of Mine lessons
        
↑ Back to top | Tablatures and chords for acoustic guitar and electric guitar, ukulele, drums are parodies/interpretations of the original songs. You may use it for private study, scholarship, research or language learning purposes only