» » »

Genesis - Mad Man Moon Tabs

Artists:  A B C D E F G H I J K L M N O P Q R S T U V W X Y Z # 

Mad Man Moon Tabs

(ver. 1) Click to play this song!
Genesis
 Rating:
4.3/5 (10 votes)

 Mad Man Moon  lessons Tabs too difficult? Try these video lessons and learn fast
 
                [INTRO]

                                                      ¢IV-------?  

E|-------5h7--0----------8--7--5------------5h7-------------7--5--3-------------5h7--0---0--0--0-----------|
B|--7h8--------------------------------7h8-------3-------------------------7h8-----------8--8--8-----------|
G|--------------------2--5-------------------------------4-------------------------------------------------|
D|-----------------2----------------4-----------------4-----------------2----------------------------------|
A|------------0h3--------------0h5---------------2h5-----------------3-------------------------------------|
E|----------------------------------------------------------------3------------------0---------------------|



                         
                                [VERSE]Was it summer when the river ran dry...
                                                                              CII-------?

E|-----0-----------0--0--0-----0---3------------------0--------0-----2---------5---------------------------|
B|-----8-----------8--8--8-----8---5---------5-----5-----3-----------------3---2-----------0---------------|
G|---------------------------------4---4--4-----4--------2--2-----2-----2------2-----4--4--------1h2-------|
D|--9-----9-----9-----------9------0-------------------------------------------4--4-----------4------------|
A|-------------------------------------------------------3---------------------2---------------------------|
E|-----------0---------------------------------------------------------------------------------------------|



   ¢IV--------------------?                          ¢II--?

E|--4--------4-----------4----3--------------------0--3--2--0-----------2--0-------------------------------|
B|--4-----7-----5-----5-------5-----------5-----5-----3--------3--------3-----3--2-----0---------3--3--3---|
G|--4--4----------------------4--4--4--4-----4--------2--------------2--0------------------------0--0--0---|
D|-----------------6----------0-----------------------------------------------------------4--2-------------|
A|----------------------------------------------------3-----------3-----2-----------2--------3-------------|
E|--0------------------------------------------------------------------------------------------------------|
 


                                                CII--?                              CII---?   ¢V----------?

E|--------0------------------------------------------------------------------------------------7-----7--5--|
B|-----3-----3---0--------7-----------0----------2------0--------7--------0----------2---2-----5-----5-----|
G|---------------0--2--0--7-----------0----------2------0--2--0--7--------0----------2---2-----5--5--------|
D|--2------------4--------7-----2--2--4--4h5--4--2--2---4--------7--2--2--4--4h5--4--2---2-----------------|
A|---------------------------7-----------------------------------------------------------------0-----------|
E|---------------0--------0----------------------0------0--------0--------0----------0-------0-------------|



   CV------------?

E|--8-----8--5--10---10-----------------------------0-----------------2-----------------0--0---------------|
B|--6-----6-----9----9---------------------------0--------0--------3-----3-----------3--0--0---------3-----|
G|--5-----5--------------7--7--5--4--7--0--------0--------0-----2-----------2-----------0--0------0--------|
D|-----7--------9--9-----9--9--7--5--9--------2--------2-----0--------------------0--4---------0-----------|
A|--5-----------8--------------------------2-----------------2-----------------2-----3---------------------|
E|--------------------------------------0------------------------------------------------------------------|


                                                                        CII-------?            ¢IV---------  

E|--0--0-----0h2--0--2--3--5--3--------------------0--------0---------2--5----------------------4--------4-|
B|--3--3-----3----3--3--5--7--5-----------5-----5-----3------------------2-----------0----------4-----7----|
G|--0--0--0----------------------4--4--4-----4--------2--2-----2---2-----2-----2--4--------1h2--4--4-------|
D|-------------------0--0--0--0------------------------------------------4--4-----------4------------------|
A|--3--3----------------------------------------------3------------------2---------------------------------|
E|----------------------------------------------------------------------------------------------0----------|



  ------------?                        ¢II--?

E|-----------4--3--------------------0--3--2--0-----------0--2--0----------------------------------0-------|
B|--5-----5-----5-----------5-----5-----3--------3-----3-----3-----3--2---0---------3--3--3-----3----------|
G|--------------4--4--4--4-----4--------2-----------2--------0----------------------0--0--0-----0----------|
D|-----6--------0------------------------------------------------------------4--2------------2-------------|
A|--------------------------------------3--------------------2----------2-------3--------------------------|
E|---------------------------------------------------------------------------------------------------------|


                                  
            CVII--?               CII--?           CVII               CII---?   ¢V---------?

E|-------------------------------------------------------------------------------7-----7--5----------------|
B|--0--------7----------0----------2--2-----0--------7------0----------2---2-----5-----5-------------------|
G|--0--2--0--7----------0----------2--2-----0--2--0--7------0----------2---2-----5--5----------------------|
D|--4--------7-------2--4--4h5--4--2--2-----4--------7---2--4--4h5--4--2---2-------------------------------|
A|---------------7---------------------------------------------------------------0-------------------------|
E|--0--------0----------0----------0-----0--0--------0------0----------0------0----------------------------|



   CV---------?

E|--8-----8--5--10----------------------------------0-----------------2------------------0-----------0--0--|
B|--6-----6-----9----9---------------------------0--------0--------3-----3--------3-3-3--3-----------3--3--|
G|--5-----5--------------7--7--5--4--7--0--------0--------0-----2--------2-----2---------0--------0--------|
D|-----7--------9--9-----9--9--7--5--9--------2--------2-----0--------------------4-4-4--------------------|
A|--5-----------8--------------------------2-----------------2--------------2-------2-3-----3--3--------3--|
E|--------------------------------------0------------------------------------------------------------------|



                       [CHORUS]  If this desert's all there'll ever be...                     
                                                  CII----------------?

E|-------0----2--3--5---0--------------------0--2--4p2---2--2-------------------------------------0--------|
B|-----3---3--3--5--7---0-----0-----------------------------------------0--1--------------0--1h3--------3--|
G|--0-------------------1-----1--1--1--1--2--1--2--4p2---2--2-----2--------2-----2-----2----------------2--|
D|------------0--0--0------2-----2--2--2--4--------------------4-----------2--2-----2----------------3-----|
A|----------------------2----------------------------------------------------------------------------------|
E|----------------------0--------------------------2-----------------2-----2----------------------1--------|



               CII-------? CIII----? CI-----?                  CVI---------------? CI--------?    CI

E|--------------2-----------3------------------3--5--5--4----5--6-------------------------------5--1--0----|
B|--1--------1--3--3--3--3--3---3-----1-----1-----6--6--5----6--6h8--------6--------1--------1--6--1--5----|
G|-----------0--2--2--2--2--3---3-----2-----2------------------------7-----------7--2-----2--------2--4----|
D|--------2------------------------3-----3--------3--------3------------8--------------3--------3-----5----|
A|-----3--------3-----------3-------------------------------------------------------------------------0----|
E|------------------------------------1-------------------------6-------------6-----1--------------1-------|





E|------0--------2--------4-----------------0--------2--------4-----------------0--------2--------3--------|
B|--3---2--------3--------5-----------------2--------3--------5-----------------1--------3--------5--------|
G|--2---1--1--1-----1--1--------------------1--1--1-----1--1--------------------0--0--0-----0--0-----0--0--|
D|--0------------------------6--6--6--6--6--0--------------------6--6--6--6--6-----------------------------|
A|--2---------------------------------------------------------------------------0--------------------------|
E|--0---0--------------------------------------------------------------------------------------------------|



                                                      [OUTRO]
                                                 CIV            CII-------------?                    CIV---

E|-----------0--------2--------3----------------------------2h4-------------5--4--2------------------------|
B|-----------1--------3--------5------------------5----4h5-------2-------------------------4h5--7/9--------|
G|--0--0--0--0--0--0-----0--0-----0--0--0--0--0---4--------------------------------------------------4-----|
D|-----------0------------------------------------6----------------------4--------------1------------------|
A|------------------------------------------------4-------------------4--------------2---------------------|
E|---------------------------------------------------------------2h5--------------2------------------4h7---|



  ------------?

E|--------4------------------2h4------0--0--0-----0-----------0--0--0-----0-----------0--0--0-----0--------|
B|-----------7\-5-------4h5-----------4--4--4-----4-----------4--4--4-----4-----------4--4--4-----4--------|
G|--------------------------------6------------------------------------------------------------------------|
D|-----6-------------2-------------------------6-----6-----6-----------6-----6-----6-----------6-----6-----|
A|--6-----------0h4---------------4---------------------4-----------------------4-----------------------4--|
E|---------------------------------------------------------------------------------------------------------|            
Submit corrections


        Mad Man Moon  lessons Hard to play? Try these video lessons and learn fast Mad Man Moon  lessons
        
↑ Back to top | Tablatures and chords for acoustic guitar and electric guitar, ukulele, drums are parodies/interpretations of the original songs. You may use it for private study, scholarship, research or language learning purposes only