Home » G » Gene Autry »

Gene Autry - Here Comes Santa Claus Tabs

Artists:  A B C D E F G H I J K L M N O P Q R S T U V W X Y Z # 

Here Comes Santa Claus Tabs

(ver. 1) Click to play this song!
Gene Autry
e|---------------------------------------------------------------------------|
B|---------------------------------------------------------------------------|
G|---------------------------------------------------------------------------|
D|----7-5-5--------7-5-5--------8--8-8-7-8------8-8-7-8------8-8-7-8---------|
A|----------8------------8---5---------------5------------5------------------|
E|-8------------8------------------------------------------------------------|

e|---------------------------------------------------------------------------|
B|-----------------6-5-5------5---------------------------6-5-5--------------|
G|-5-5-5-4-5---5-7-------7--5---7-7-5------7-5--------5-7-------7------------|
D|-------------------------------------8-8-----8-7---------------------------|
A|---------------------------------------------------------------------------|
E|---------------------------------------------------------------------------|

e|---------------------------------------------------------------------------|
B|---5-----------------------------------------------------------------------|
G|-5---7-7----5-5-----------------------------------------------------------.|
D|---------7------8-7-5-----------------------------------------------------.|
A|----------------------8----------------------------------------------------|
E|---------------------------------------------------------------------------|            
Submit corrections

↑ Back to top | Tablatures and chords for acoustic guitar and electric guitar, ukulele, drums are parodies/interpretations of the original songs. You may use it for private study, scholarship, research or language learning purposes only