Home » G » Gavin Degraw »

Gavin Degraw - Im In Love With A Girl Bass

Artists:  A B C D E F G H I J K L M N O P Q R S T U V W X Y Z # 

Im In Love With A Girl Bass

(ver. 1) Click to play this song!
Gavin Degraw
----------------------------------------------------------------------------		   
I'm in Love with a Girl- Gavin Degraw
----------------------------------------------------------------------------



INTRO: (ENTER ON 2ND TIME)
G|---------------------------|-------------------|------------------|X2|
D|---------------------------|------0------------|------0-----------|X2|
A|-----------------1-1-------|-1-3-----1-3---1-1-|-1-3-----1-3---1--|X2|
E|--2-2---0---2-2--------2---|-------------------|------------------|X2|


VERSE:
G|-----|-----------|X3|----------------| {X2}
D|-----|-----------|X3|----------------| {X2}
A|-----|--1-1---3--|X3|-1-1--3--5-5--3-| {X2}
E|-2-2-|-----------|X3|----------------| {X2}


CHORUS:
G|---------|---------|---------|---------|X2|
D|---------|---------|---------|-0-0-0-0-|X2|
A|---------|-1-1-1-1-|-0-0-0-0-|---------|X2|
E|-2-2-2-2-|---------|---------|---------|X2|

G|---------|---------|---------|---------|X4|
D|---------|---------|-0-0-0-0-|-5-5-5-5-|X4|
A|---------|-1-1-1-1-|---------|---------|X4|
E|-2-2-2-2-|---------|---------|---------|X4|


BRIDGE:
G|-----|-----|-----|-----|X3|-----|-----|
D|-----|-0-0-|-5-5-|-----|X3|-----|-0-0-|
A|-----|-----|-----|-3-3-|X3|-----|-----|
E|-2-2-|-----|-----|-----|X3|-2-2-|-----|



That's it! Pretty simple, but it's mad fun!
            
Submit corrections

↑ Back to top | Tablatures and chords for acoustic guitar and electric guitar, ukulele, drums are parodies/interpretations of the original songs. You may use it for private study, scholarship, research or language learning purposes only