» » »

Gasolin - Kloden Drejer Stille Rundt Tabs

Artists:  A B C D E F G H I J K L M N O P Q R S T U V W X Y Z # 

Kloden Drejer Stille Rundt Tabs

(ver. 1) Click to play this song!
Gasolin
 Rating:
4.3/5 (25 votes)

 Kloden Drejer Stille Rundt lessons Tabs too difficult? Try these video lessons and learn fast
 
                [Intro riff]

e|-----------------------------------------------|
B|-----------------------------------------------|
G|-----------------------------------------------|
D|--5--3---(3)/8--10p8--7--8p7--6p8--5--(5)\3/5--| x1
A|-----------------------------------------------|
E|-----------------------------------------------|

e|-----------------------------------------------|
B|-----------------------------------------------|
G|-----------------------------------------------|
D|-----3---(3)/8--10p8--7--8p7--6p8--5--(5)\3/5--| x2
A|-----------------------------------------------|
E|-----------------------------------------------|


[Riff 2]

e|--------------8--5---------|
B|--9--8--6--5---------------|
G|---------------------------|
D|----------------------(0)/6|
A|---------------------------|
E|---------------------------|


[Intro riff, 1 step down]

e|----------------------------------------|
B|----------------------------------------|
G|----------------------------------------|
D|--1/6--8p6--5--6p5--4--6p4--3--(3)\1/3--|
A|----------------------------------------|
E|----------------------------------------|


[Solo 1]

e|------------------------------------------------------------------------------------------------|
B|--------------------14---------------------------12--11--10--9--8--7--10--9--8--7--6--5---------|
G|--6h8------6--8--13b15r13--13--11------------11-------------------------------------------------|
D|-----------------------------------13----13----------------------------------------------(0)/5--|
A|------------------------------------------------------------------------------------------------|
E|------------------------------------------------------------------------------------------------|


[Intro riff]

e|-----------------------------------------------|
B|-----------------------------------------------|
G|-----------------------------------------------|
D|--5--3---(3)/8--10p8--7--8p7--6p8--5--(5)\3/5--|
A|-----------------------------------------------|
E|-----------------------------------------------|


[Riff 2]

e|--------------8--5---------|
B|--9--8--6--5---------------|
G|---------------------------|
D|----------------------(0)/6|
A|---------------------------|
E|---------------------------|


[Intro riff, 1 step down]

e|----------------------------------------|
B|----------------------------------------|
G|----------------------------------------|
D|--1/6--8p6--5--6p5--4--6p4--3--(3)\1/3--|
A|----------------------------------------|
E|----------------------------------------|


[Solo 2]

e|--------------------------------------------------------------------------------14--16--14------|
B|--9--11--11----8--9/14--13--13----11--13--14----13--14--15----15--16----14--16--------------16--|
G|------------------------------------------------------------------------------------------------|
D|------------------------------------------------------------------------------------------------|
A|------------------------------------------------------------------------------------------------|
E|------------------------------------------------------------------------------------------------|


e|----------14--16b18--16pb18--16pb18r16--14------------------14--16--14--18b20--18--18b20--18--18b20--|
B|--14--16------------------------------------16------14--16-------------------------------------------|
G|-----------------------------------------------------------------------------------------------------|
D|-----------------------------------------------------------------------------------------------------|
A|-----------------------------------------------------------------------------------------------------|
E|-----------------------------------------------------------------------------------------------------|


e|--18--16------21b23--21--21b23--21--21b23---------|
B|----------16-------------------------------16b18--|
G|--------------------------------------------------|
D|--------------------------------------------------|
A|--------------------------------------------------|
E|--------------------------------------------------|


[Intro riff, 1 step up]

e|-------------------------------------------|
B|-------------------------------------------|
G|-------------------------------------------|
D|--10--12p10--9--10p9--8--10p8--7--(7)\5/7--|
A|-------------------------------------------|
E|-------------------------------------------|


[Riff 2, 1 step up]

e|----------------10--7---------|
B|--11--10--8--7----------------|
G|------------------------------|
D|-----------------------(0)/8--|
A|------------------------------|
E|------------------------------|


[Intro riff]

e|-----------------------------------------------|
B|-----------------------------------------------|
G|-----------------------------------------------|
D|--5--3---(3)/8--10p8--7--8p7--6p8--5--(5)\3/5--|
A|-----------------------------------------------|
E|-----------------------------------------------|


[Outro riff]

e|--------------8--5-----6--3------|
B|--9--8--6--5--------3------------|
G|---------------------------------|
D|---------------------------------|
A|--------------------------(3h5)--|
E|---------------------------------|


[Intro riff]

e|-----------------------------------------------|
B|-----------------------------------------------|
G|-----------------------------------------------|
D|--5--3---(3)/8--10p8--7--8p7--6p8--5--(5)\3/5--|
A|-----------------------------------------------|
E|-----------------------------------------------|


            
Submit corrections


        Kloden Drejer Stille Rundt lessons Hard to play? Try these video lessons and learn fast Kloden Drejer Stille Rundt lessons
        
↑ Back to top | Tablatures and chords for acoustic guitar and electric guitar, ukulele, drums are parodies/interpretations of the original songs. You may use it for private study, scholarship, research or language learning purposes only