» » »

Gary Us Bonds - Its Only Love Bass

Artists:  A B C D E F G H I J K L M N O P Q R S T U V W X Y Z # 

Its Only Love Bass

(ver. 1) Click to play this song!
Gary Us Bonds
 Rating:
4/5 (4 votes)

 Its Only Love lessons Tabs too difficult? Try these video lessons and learn fast
 
                Song written by John Lennon (Lennon/Mccartney) This version
By Gary US Bonds.  Single released in 1981 taken from his 
Dedication Album. Original Bassist: Steven Van Zandt.

Intro:
G|-----------------|-------------------------------|
D|----FIRST PART---|-------------------------------|
A|---GUITAR ONLY---|---5-55---2-22---5-55---2-22---|
E|-----------------|-------------------------------|

Verse:
G|---------------------------------------------------------------------|
D|------4---4------------------------------4---4-----------------------|
A|-5---5-----3---3--------------------5---5-----3---3------------------|
E|----------------3---3-5-55---5-55------------------3---3-5-55---5-55-|

G|---------------------------------|
D|---------------------------------|
A|-----------------5-55-4---2-22-2-|
E|-3-33-3---5-55-5-----------------|

Chorus
G|-------------------------------------------------------------------|
D|-------------------------------------------------------------------|
A|-3-33-2---------5-55-4---2-22-2---3-33-2---0-00-0------------------|
E|--------5-55-5-------------------------------------3-33-3---5-55-5-|

Repeat Verse:

Repeat Chorus:

Repeat 2nd Part of Intro x2:

Bridge:
G|----------------------------|
D|----------------------------|
A|--------------5-55---2-22-2-|
E|-3-33---5-55----------------|

Chorus 2:
G|-------------------------------------------------------------------|
D|-------------------------------------------------------------------|
A|-3-33-2---------5-55-4---2-22-2---3-33-2---0-00-0------------------|
E|--------5-55-5-------------------------------------3-33-3---5-55-5-|

G|-----------------|
D|-----------------|
A|-----------------|
E|-3-33-3---5-55-5-|

Repeat 2nd Part Of Intro to End:
            
Submit corrections


        Its Only Love lessons Hard to play? Try these video lessons and learn fast Its Only Love lessons
        
↑ Back to top | Tablatures and chords for acoustic guitar and electric guitar, ukulele, drums are parodies/interpretations of the original songs. You may use it for private study, scholarship, research or language learning purposes only