Home » G » Gary Allan »

Gary Allan - Watching Airplane Tabs

Artists:  A B C D E F G H I J K L M N O P Q R S T U V W X Y Z # 

Watching Airplane Tabs

(ver. 1) Click to play this song!
Gary Allan
this part comes in at the end of the bridge and plays through out the the last chorus 


E|-----------------14-----------------
B|-14/16--12h14p12----16-14--12h14----
G|------------------------------------    x3
D|------------------------------------
A|------------------------------------
E|------------------------------------


E|-------------------------------------
B|-16----------------------------------
G|----13---16--------------------------
D|-------------13---16-----------------
A|----------------------14--16--14-----
E|-------------------------------------
            
Submit corrections

↑ Back to top | Tablatures and chords for acoustic guitar and electric guitar, ukulele, drums are parodies/interpretations of the original songs. You may use it for private study, scholarship, research or language learning purposes only