Home » G » Gary Allan »

Gary Allan - Today Tabs

Artists:  A B C D E F G H I J K L M N O P Q R S T U V W X Y Z # 

Today Tabs

(ver. 1) Click to play this song!
Gary Allan
Gary Allan-Today

Key:
h=hammer on
p=pull off
b=bend to note in ( )
bh=bend and hold
r=release bend
~=vibrato
  
 Solo
e---------------------------------------------------------------------------------------------------------
B-----------------------------------------------------------11--13----------------------------------------
G-------10~--10~--10~-----12b(14)rp10h12--12--10--12bh(14)----------12(14)r--10--12--12b(14)r--10---------
D--/12----------------------------------------------------------------------------------------------------
A---------------------------------------------------------------------------------------------------------
E---------------------------------------------------------------------------------------------------------

e----------------------------------10--10--------------------------13------------13-----15----15b(17)~r---
B--------13--15------13---13bh(15)-----13(15)rb(15)r--11----11--13----13--11--13-----13----13-------------
G--12/14---------14---------------------------------------------------------------------------------------
D---------------------------------------------------------------------------------------------------------
A---------------------------------------------------------------------------------------------------------
E---------------------------------------------------------------------------------------------------------
            
Submit corrections

↑ Back to top | Tablatures and chords for acoustic guitar and electric guitar, ukulele, drums are parodies/interpretations of the original songs. You may use it for private study, scholarship, research or language learning purposes only