Home » G » Gary Allan »

Gary Allan - Ring Tabs

Artists:  A B C D E F G H I J K L M N O P Q R S T U V W X Y Z # 

Ring Tabs

(ver. 1) Click to play this song!
Gary Allan
Intro:
E---------------------------------------------------------
B---------------------------------------------------------
G---------------------------------------------------------
D---------------------------------------------------------
A-------------2-2p0----------------------2s3-5-5--
E-3s5-7p0------------2----3s5-7p0-----------

Outro:
E---------------------------------------------------------
B---------------------------------------------------------
G---------------------------------------------------------
D---------------------------------------------------------
A----------2s3s2p0-2---------3-3p0----------2-2p0---
E3s5-7p0--------------3s5-7p0------2-3s5-7p0-----2-3s5-7p0
            
Submit corrections

↑ Back to top | Tablatures and chords for acoustic guitar and electric guitar, ukulele, drums are parodies/interpretations of the original songs. You may use it for private study, scholarship, research or language learning purposes only