Home » G » Gary Allan »

Gary Allan - It Would Be You Tabs

Artists:  A B C D E F G H I J K L M N O P Q R S T U V W X Y Z # 

It Would Be You Tabs

(ver. 1) Click to play this song!
Gary Allan
Key:

b   =   bend                               h   =   hammer-on

p   =   pulloff                            pm  =   palm mute

br  =   bend & release                     x   =   dead note

/   =   slide up                           \   =   slide down

~   =   vibrato                            nh  =   Natural Harmonic

ah  =   Artificial Harmonic		   pbr =   pre-bend & release

bh  =   Bend and hold			   rb  =   Release bend

***********************************************************************

Intro:

E------------------------------------------------------------------
B--1/3-3-1-0h1p0----------1/3-3-1-0h1p0----------------------------
G----------------2----------------------2--------------------------
D------------------0-0--0-----------------0-0----------------------
A------------------------------------------------------------------
E------------------------------------------------------------------


After first Chorus:


E------------------------------------------------------------------
B--1/3-3-1-0h1p0---------------------------------------------------
G----------------2-------------------------------------------------
D------------------0-0---------------------------------------------
A------------------------------------------------------------------
E------------------------------------------------------------------

Solo:
  Rake
E-----------------------------------------------------------10-----
B---8~~-8~~-8~~--10bh--10rbp8-10---------------8-10-8-10/12----8~~~
G--x-----------------------------7~~~~--7-8/10---------------------
D-x----------------------------------------------------------------
A------------------------------------------------------------------
E------------------------------------------------------------------

E--10/12-10-8-------------------------/12---/15-----15-------------
B-------------10bh--10rb-10p8--------------------------------------
G-----------------------------9~~~-/12---/15----15-----------------
D------------------------------------------------------------------
A------------------------------------------------------------------
E------------------------------------------------------------------


Outro:

E------------------------------------------------------------------
B--1/3-3-1-0h1p0---------------------------------------------------
G----------------2-------------------------------------------------
D------------------0-0---------------------------------------------
A------------------------------------------------------------------
E------------------------------------------------------------------
            
Submit corrections

↑ Back to top | Tablatures and chords for acoustic guitar and electric guitar, ukulele, drums are parodies/interpretations of the original songs. You may use it for private study, scholarship, research or language learning purposes only