Home » G » Gary Allan »

Gary Allan - From Where I'm Sittin' Tabs

Artists:  A B C D E F G H I J K L M N O P Q R S T U V W X Y Z # 

From Where I'm Sittin' Tabs

(ver. 1) Click to play this song!
Gary Allan
Intro

  E       D   A         B    
E-0-2^4^2-0-0-----0-0---0-0^2------
B-------------0^2-----2------------
G----------------------------------
D----------------------------------
A----------------------------------
E----------------------------------

E---4^5^4-2-2-----0-0---0-2^4^2----|
B-0-------------2-----2------------|
G----------------------------------|
D----------------------------------|
A----------------------------------|
E----------------------------------|
            
Submit corrections

↑ Back to top | Tablatures and chords for acoustic guitar and electric guitar, ukulele, drums are parodies/interpretations of the original songs. You may use it for private study, scholarship, research or language learning purposes only