Home » G » Gary Allan »

Gary Allan - Alright Guy Tabs

Artists:  A B C D E F G H I J K L M N O P Q R S T U V W X Y Z # 

Alright Guy Tabs

(ver. 1) Click to play this song!
Gary Allan
Gary Allan - Alright Guy (lead)


***********************************************************************

/   =   slide up                              \   =   slide down

p   =   pulloff                               h   =   hammer-on

~   =   vibrato with bar                      

***********************************************************************



INTRO


E--------------------------------|
B--------------------------------|
G--------------------------------|
D--------------------------------|
A--5/7-7-7-5-3-5-3-3\------------|
E--------------------1-1/5-3-3---|



LEAD SOLO


E--------------------------------------------------------6-6-6-5--
B--------------------------------------8-8-8-5--8-8-8-5--6-6-6-6--
G--------------------------------------7-7-7-5--7-7-7-5--5-5-5-5--
D----------5-5-------------------------5-5-5-5--5-5-5-5-----------
A---3-5-5/7---7\5--3-1-0---0-0-3/5-3------------------------------
E--3--------------------3-1---3-----------------------------------


E--6-6-6-5-------------------------------------|
B--6-6-6-6--6-6-6p5-5--------------------------|
G--5-5-5-5--5-5-5-5-5-7-7-5----5---------------|
D-----------7-7-7p5-5-5-5-5----5---------------|
A---------------------7-7-7-5-7-7\5-3-5/7------|
E----------------------------------------1/3---|



LEAD IN FINAL VERSE (broken into runs in the order it is played)


outside the bar            outta my car
E--------------3-3---------------8/10\8-8--------------------3------|
B------------------5-3-1---------8/10\8-8-10\8---8-5-5-5-----3------|
G--------------5-5------------------------9-\7-7-7-5-5-5-7-5--------|
D------------------5-3-2---------------------------------7-5--------|
A-------------------------------------------------------------------|
E-------------------------------------------------------------------|


ENDING SOLO


E------3-3------------------1-0---------------------------------------
B--3h5-5-3-5-8~~~--3h5-5-5--1-1---------------------------------------
G--5-5---5-5-5~~~--5-5-5-5--2-0---------------------------------------
D--5-5-----5-7~~~--5-5-5-5--3-2----------5----------------------------
A---------------------------3-3---3-5-5/7-7-5-3-1-0------------3h5-3--
E--------------------------------------------------3-1--3/5-5-3-------

                                                song fades out.......
E--------------5/6-6-6-6-5-5-5~---------------------------------------|
B--8-8-8p5-5-5-5/6-6-6-6-6-6-6~-/6-6-5-5-5-----5-----6--6-5h6-6-5-6-5-|
G--7-7-7p5-5-5-4/5-5-5-5-5-5-5~-/5-5-5-5-5----5---5-5-5-5-5-5-5-5-5-5-|
D--5-5-5-5-5-5------------------/7-7-5-5-5---5--8-7---7---5h7-7-5-7-5-|
A-----------------------------------------5h7-------------------------|
E---------------------------------------------------------------------|
            
Submit corrections

↑ Back to top | Tablatures and chords for acoustic guitar and electric guitar, ukulele, drums are parodies/interpretations of the original songs. You may use it for private study, scholarship, research or language learning purposes only