Home » G » Garth Brooks »

Garth Brooks - Walking After Midnight Tabs

Artists:  A B C D E F G H I J K L M N O P Q R S T U V W X Y Z # 

Walking After Midnight Tabs

(ver. 1) Click to play this song!
Garth Brooks
 Rating:
4/5 (4 votes)
                Garth Brooks  -  Walking After Midnight (bass)



I'm not a bass player, and I never claim to be, so this tab might be a bit sketchy
in parts....I reckon its gotta be pretty close though.
Let me know how you do with it!


******************************************************************************************




Bass in verse before music starts...can probably get away with playing the 
same kind of thing for all the verse parts with a few alterations.


   F                      Bb                       F      Db  C   F        C  

G-------7---------------------------------------------------------------------------|
D---7-10-10--------------------3-5-3--0-3-1-0---------------------3-----------------|
A--8--------8-8-6-5-3-0-0-1-3/5------1-------3-1-0--0-3-3-4-4-3-3--3-0-1-2-3-0------|
E----------------------1---------------------------1---5--------------------1-3-3---|




The bass in the chorus is playing something like this:

  
   Bb              F                   Bb              F     C  Db C

G------0-----------------------------------0----------------------------|
D---0-3-3-0-3----------0----------------0-3-3-0-3----------0------------|
A--1-----1---3-1-0--0-3-3-----------0--1-----1---3-1-0--0-3-3---4---3---|
E------------------1-----1-1-3-1-4-1-1-----------------1-----3-3--------|




The bass after the key change, up to the end of the song, is something like this:

  
   G                 C            G      Eb  D     G    F     E

G----------------------0------------------------------------------------
D--2-0---0-0----------2-2-------0---0----1-1-0-0-0----------------------
A-----2-2------0-1-2-3---3-1-0-2---2-2-2--------2-----------------------
E------3----3-3---------------3---3----------------3-3--1-1-0-0-2-3-4-0-
 
   A         D               G    D     G

G-------------------------------------------|
D------------0-0-2-2-3-3-4-0-5\---0-2-4-----|
A--0-0-2-3-4--------------------------------|
E---------------------------------------3---|


            
Submit corrections

↑ Back to top | Tablatures and chords for acoustic guitar and electric guitar, ukulele, drums are parodies/interpretations of the original songs. You may use it for private study, scholarship, research or language learning purposes only