Home » G » Garth Brooks »

Garth Brooks - To Make You Feel My Love Tabs

Artists:  A B C D E F G H I J K L M N O P Q R S T U V W X Y Z # 

To Make You Feel My Love Tabs

(ver. 1) Click to play this song!
Garth Brooks
 Rating:
4/5 (4 votes)
                Garth Brooks - To Make You Feel My Love (picked intro)



This is a piano part I've arranged for guitar.
Use this a guide for picking the rest of the song.

***********************************************************************

   D          A        Cdim         G         Gm
 
E--5--5-5--------5-----5----5--2-0------------6-5----------
B-----7---7---5--5--------4---------3----3----8---8-8------
G----7----7-----4------5-----------------0h2--7---7-7--7---
D---7------7---5----7----4-----------0-0------5---5-5---5--
A--5-------------------------------------------------------
E-------------5---------------------3----------------------

   D   Bm  E     Asus   D

E--5-------7-----------------|
B----7---------7--5----------|
G--7--7----7--0-----7-7------|
D-------------------7-7------|
A--5---------7-----7-----5---|
E------7---0------5----------|
            
Submit corrections

↑ Back to top | Tablatures and chords for acoustic guitar and electric guitar, ukulele, drums are parodies/interpretations of the original songs. You may use it for private study, scholarship, research or language learning purposes only