Home » G » Garth Brooks »

Garth Brooks - Squeeze Me In Tabs

Artists:  A B C D E F G H I J K L M N O P Q R S T U V W X Y Z # 

Squeeze Me In Tabs

(ver. 1) Click to play this song!
Garth Brooks
 Rating:
4/5 (4 votes)
                
e |---------------------------------------------------------|
b |-8----8--------------------------------------------------|
g |-7-9--7-9-----5---3-----3--------------------------------|
D |-\b/--\b/------\p/----5---5-3--1-3--1-----1--1-----------|
E |----------------------------\sl/--\p/--3--------3--1-----|
A |------------------------------------------------\p/---3--|

e |---------------------------------------------------------|
b |---------------------------------------------------------|
g |---------------------------------------------------------|
D |-/h\/p\/h\/p\/h\/p\.......repeat...----------------------|
A |-1--3--1--3--1--3--1...............----------------------|
E |---------------------------------------------------------|

            
Submit corrections

↑ Back to top | Tablatures and chords for acoustic guitar and electric guitar, ukulele, drums are parodies/interpretations of the original songs. You may use it for private study, scholarship, research or language learning purposes only