Home » G » Garth Brooks »

Garth Brooks - She's Gonna Make It Tabs

Artists:  A B C D E F G H I J K L M N O P Q R S T U V W X Y Z # 

She's Gonna Make It Tabs

(ver. 1) Click to play this song!
Garth Brooks
 Rating:
4/5 (4 votes)
                She's Gonna Make It
Garth Brooks
Sevens

See picking below

G/B   - x2x033
G(9)  - 3x0233
D7sus - xx0213

Intro

Am7  G/B  C(9)  Am7  G/B  C  D

Verse:

Em            D       C(9)
He followed her to work this morning
Am         D                     G
He'd never seen that dress before.
Em                D                    C(9)
She seemed to sail right through those dark clouds forming
Am                          Dsus2   C(9)   
That she knows he's headed for
     Bm                  Em       C
After seven years of marrige, he wanted out
G/B      Am                    G/B        C                      D
Now after seven months of freedom, it's clear that there's no doubt.


Chorus:
                 C(9)              G/B     
She's gonna make it, and he never will
                               Gm/Bb                  Dsus 
He's at the foot of that mountain, she's over that hill
   D                 C(9)                   G/B
He's sinkin' at sea, and her sails are filled
                Am  G/B   C           G    D/F# 
She's gonna make it, and he never will


Verse 2: (same chords as first)
You know it's not like she's forgot about it
She's just dealin' with the pain.
And the fact that she's survived so well without him
You know it's driving him insane.
And the crazy thing about it, is she's take him back.
But the fool in him that walked out, is the fool that just won't ask.

Chorus:
                 C(9)              G/B     
She's gonna make it, and he never will
                               Gm/Bb                  Dsus 
He's at the foot of that mountain, she's over that hill
   D                 C(9)                   G/B
He's sinkin' at sea, and her sails are filled
                Am  G/B   C  D        Em          
She's gonna make it, and he never will
    D                 C(9)  D7sus        C(9) Am7 G/B C(9) Am7 G/B C D G(9) 
Lord, She's gonna make it, he never will


---


Intro

  Am7 G/B C(9)           Am7 G/B C       D
e---------0---0--0---0-----------0-------2---2---
B-1---3----3------3------1---3-------1-----3-----
G---0---0---0---0--0---0---0---0---0---0--2---2--
D--2---0-------2------2---2---0---2---2--0--0----
A-0---2---3--3---3--3----0---2---3--3------------
E------------------------------------------------

Verse
  Em      D       C(9)            Am      D       G             Em
e-0-------2---2---3-------3---------------2---2---3------3-------0-------
B-----0-----3---3-----3-------3---1---1-----3---3-----3------3-------0---
G---0---0--2---2----0---0---0---0---2---2--2---2----0---0--0---0---0---0-
D--2---2--0--0-----2---2---2---2---2---2--0--0-----0---0--0---0---2---2--
A----2------------3--3----3--3----0--0------------------------------2----
E-0-----------------------------------------------3--3---3--3----0-------


  D       C(9)           Am             Dsus2   D    C(9) Bm       Em
e-2---2---3------3--------------0-----------0---0h2---0------------0-------
B---3---3-----3------3---1---1------1-----3---3-----3--3---3---3-------0---
G--2---2----0---0--0---0---2---2--2---2--2---2-----2-----0---4---4---0---0-
D-0--0-----2---2--2---2---2---2--2---2--0--0----0-------2---4---4---2---2--
A---------3--3---3--3----0--0------0------------------3----2--2-------2----
E-------------------------------0----------------------------------0-------

  C          G/B  Am      G/B     C       D
e--------0--------------------------------2--2h3p2p0---2-
B-1---1------3----1---1---3---3---1---1-----3-------3--3-
G---0---0--0--0-0---2---0---0---0---0---0--2---------2-2-
D--2---2--2----0---2---2---0---0---2---2--0------------0-
A-3--3---3---2----0--0----2--2----3--3-------------------
E--------------------------------------------------------

Outro
  C(9)            Am7 G/B C(9)           Am7 G/B  C   D   G(9)
e-3-------3---------------0---0---0---0-----------0---2-----3--
B-----3-------3---1---3----3-------3------1---3--------3----3--
G---0---0---0---0---0---0---0---0---0---0---0---0---0---2---2--
D--2---2---2---2---2---0-------2-------2---2---0---2--0--------
A-3--3----3--3----0---2---3--3----3--3----0---2---3------------
E----------------------------------------------------------3---
            
Submit corrections

↑ Back to top | Tablatures and chords for acoustic guitar and electric guitar, ukulele, drums are parodies/interpretations of the original songs. You may use it for private study, scholarship, research or language learning purposes only