Home » G » Garth Brooks »

Garth Brooks - Much Too Young (too Feel This Damn Old) Tabs

Artists:  A B C D E F G H I J K L M N O P Q R S T U V W X Y Z # 

Much Too Young (too Feel This Damn Old) Tabs

(ver. 1) Click to play this song!
Garth Brooks
 Rating:
4/5 (4 votes)
                E------------------3----------------------------------3--|
B---0----------0-----------------0------1----0---1-------|
G---------2-----------------0--------0-------------------|
D------0---------0-------0---------0------2--------2-----|
A---------------------------------------0------0---------|
E---3--------3---------3------3--------------------------|


E-----------3--------0h2----0-------------0--------------|
B------1---------0----------------3----0-------3---1-----|
G---2---------2-----------2---------2--------0---------0-|
D--------2-----------0---------0-------------------------|
A-0---------------------------------------3------3---3---|
E--------------------------------------------------------|


E---------------------------------------------0---------|
B-0--------------------0-----------3------3------3------|
G------------2----------------0-------2---------------2-|
D-------0-----------------0--------0------------------0-|
A-------------------------------------------------------|
E-3---------------3-------------------------------------|
            
Submit corrections

↑ Back to top | Tablatures and chords for acoustic guitar and electric guitar, ukulele, drums are parodies/interpretations of the original songs. You may use it for private study, scholarship, research or language learning purposes only