Home » G » Garth Brooks »

Garth Brooks - I've Got A Good Thing Going Tabs

Artists:  A B C D E F G H I J K L M N O P Q R S T U V W X Y Z # 

I've Got A Good Thing Going Tabs

(ver. 1) Click to play this song!
Garth Brooks
 Rating:
4/5 (4 votes)
                I'm pretty sure it's all correct, if not it's close enough.





Intro:
E----------------------------------------------------
B--------------------------------7-7/9--7--5---------
G-------------------4/6-4----7-9---------------------
D------------4/6-4-----------------------------------
A---5-4--2-------------------------------------------
E--------------------------------------------4--2--0-


Chorus:
I've got a good thing going...
E------------------
B------------------
G------------------
D------------1-2---
A-----0-2-4--------
E-----------------

Shes tired of hangin on...
E------------------------------------
B----------------------7-7/9--7--5---
G----------4/6-4---7-9---------------
D----4/6-4---------------------------
A------------------------------------
E------------------------------------


I've got a good thing going...
E------------------------------------
B------------------------------------
G--2/4-2-0---------------------------
D-----------4-2----------------------
A------------------------------------
E------------------------------------

Thats she's as good as gone...(just play intro again)



And the ending is also just the intro again. Enjoy!












            
Submit corrections

↑ Back to top | Tablatures and chords for acoustic guitar and electric guitar, ukulele, drums are parodies/interpretations of the original songs. You may use it for private study, scholarship, research or language learning purposes only