Home » G » Garth Brooks »

Garth Brooks - Good Ride Cowboy Tabs

Artists:  A B C D E F G H I J K L M N O P Q R S T U V W X Y Z # 

Good Ride Cowboy Tabs

(ver. 1) Click to play this song!
Garth Brooks
This is a tab of the different lead parts throughout the song. 
There's probably a few mistakes in it somewhere so if you see 
one just correct me. I didn't include the intro because Philco14
has already tabbed it.

          Symbols:
b-bend            ~-vibrato   
r-release bend    h-hammer    
/-slide up        \-slide down

I made this tab in drop d tuning because there is one note after the 
first chorus that goes down to the low d note. If you don't want to 
play it in drop d tuning you can just hit the d string instead of the 
low d note and play the rest of the notes on the low e string 2 frets 
down from where it is on the tab. 

1:11
E----------------------------------------------------------------------
B----------------------------------------------------------------------
G----------------------------------------------------------------------
D-------0-0-----0-0-----0-----0-----0---------0-2b-2br-0---------------
A-0-3/5-----3/5-----3/5---3/5---3/5---3/5-0-2------------0-2-0-2b-2br-0
D----------------------------------------------------------------------

                                1:24
E-----------3b-0----------------------0-----0--------------------------
B----------------0--------------0-0h3---3/5----------------------------
G------------------2b~r0-----------------------------------------------
D-------0----------------2---------------------------------------------
A----------------------------------------------------------------------
D-3br-0----------------------------------------------------------------

1:27                               1:34
E----------------------------------10b-10-7----------------------------
B--12--12--12--12---------------------------10b-10-8b------------------
G--11b-11b-11b-11bh--9p7-7h9~-------------------------9~---------------
D-----------------------9----------------------------------------------
A----------------------------------------------------------------------
D----------------------------------------------------------------------

1:39                           1:49
E---------------------------------12----12----12----12-----------------
B------------------11~~--------15b---15b---15b---15b---15bh------------
G----------------------------------------------------------------------
D----------7---9/11----------------------------------------------------
A-0-2/3-5/7------------------------------------------------------------
D----------------------------------------------------------------------

2:16                               Life's A Highway...
E----------------------------------------------------------------------
B----------------------------------------------------------------------
G----------------------------------------------------------------------
D-----------------------------------------2-2-4-2----------------------
A----------------5/7-7-5-5-4-4-2-2-0-0-2h4----------------2-2-4-2------
D-2-2-2-2-2-2-2-2---------------------------------2-2-5/6--------------

There's only one way...       When she starts...    More Like Chris  
E----------------------------------------------------------------------
B----------------------------------------------------------------------
G----------------------------------------------------------------------
D---------2-2-4-2--------------------------2-2-4-2----------4----------
A-0-0-2h4-----------------2-2-4-2--0-0-2h4-----------7-7\4-4-----------
D-----------------2-2-5/6----------------------------------------------

2:32         2:34       2:38                2:47   
E----------------------------------------------------------------------
B--------------------------------------11~~----------------------------
G----------------------------------------------------------------------
D-----------------------5/7-6-5-4--9/11------2-------------------------
A-4br-2------2-4br-2---------------------------5-4-2-------------------
D-------------------------------------------2--------5-4b-2/14-14-14---

                                2:55            3:02
E----------------------------------------------------------------------
B-------------------------------10-10-10-10----------------------------
G-------------------------------9b-9b-9b-9br~--------------------------
D-----------------------------------------------------------0-1-2~-----
A----------------------0--------------------------------0-4--------4br2
D-14-12-12-12-12-12-11---6-5-4------------------2-4-5-6----------------


E---0-------------------------------------------------
B--x-3-0--------------------12--12--12--8~------------
G-x-----2-0-----------------11b-11b-11b-7~---------1--
D----------1/2-0-----1/2~/-------------------------2--
A----------------2-0-------------------------10\---2--
D--------------------------------------------12\---2--
            
Submit corrections

↑ Back to top | Tablatures and chords for acoustic guitar and electric guitar, ukulele, drums are parodies/interpretations of the original songs. You may use it for private study, scholarship, research or language learning purposes only