Home » G » Garth Brooks »

Garth Brooks - Every Now And Then Tabs

Artists:  A B C D E F G H I J K L M N O P Q R S T U V W X Y Z # 

Every Now And Then Tabs

(ver. 1) Click to play this song!
Garth Brooks
E-----------------------------------3---------
B--------3------------------------0---0-------
G-----0h2--2---2----------------0-------------
D---0--------0----4--2--0-----0----------4--2-
A---------------------------------------------
E----------------------------3----------------

E-----------------------------------3---------
B--------3------------------------0---0-------
G-----0h2--2---2----------------0-------------
D---0--------0----4--2--0-----0----------4--2-
A---------------------------------------------
E----------------------------3----------------
            
Submit corrections

↑ Back to top | Tablatures and chords for acoustic guitar and electric guitar, ukulele, drums are parodies/interpretations of the original songs. You may use it for private study, scholarship, research or language learning purposes only