Home » G » Garth Brooks »

Garth Brooks - Belleau Wood Tabs

Artists:  A B C D E F G H I J K L M N O P Q R S T U V W X Y Z # 

Belleau Wood Tabs

(ver. 1) Click to play this song!
Garth Brooks
 Rating:
4/5 (4 votes)
                Belleau Wood
Garth Brooks
Sevens


Picking below

1
 D

2
D                              D/F#
Oh the snowfakes fell in scilence
    Bm          A/C#       D
Over Belleau Wood that night
      G                        D
For a Christmas truce had been declared
 A7sus                A7
By both sides of the fight
      D                      D/F#
As we lay there in our trenches
   G  
The silence broke in two
                     D
By a German soldier singing
  A7sus                D  A7sus
A song that we all knew

2
Though I did not know the language
The song was "Silent Night"
Then I heard my buddy whisper,
"All is calm, and all is bright"
Then the fear and doubt surrounded me
'Cause I'd die if I was wrong
But I stood up in my trench
And I began to sing along

3
 Dsus2  A7   
    Then across the frozen battlefield
     G                   D
Another's voice joined in
      G                D/F#
Until one by one each man became 
     Em7           Asus   A
A singer of the hymn

2
Then I thought that I was dreaming
For right there in my sight
Stood the German soldier
'Neath the falling flakes of white
And raised his hand and smiled at me
As if he seemed to say
Here's hoping we both live
To see us find a better way

3
Then the devil's clock struck midnight 
And the skies lit up again
And the battlefield where heaven stood
Was blown to  hell again

2
But for just one fleeting moment
The answer seemed so clear
Heaven's not beyond the clouds
It's just beyond the fear
No Heaven's not beyond the clouds
It's for us to find it here

4
D'  D/C  G/B  Gm/Bb  Dsus/A  D  A7sus'  A7  G/D  D

----

Intro (1)
D
e--5--5----|----5-:|
B---3---3--|--3---:|
G----2---2-|---2--:| repeat last part 10 times!
D--0---0---|-0----:|
A----------|------:|
E----------|------:|

Verse (2)
   D       D/F#   Bm A/C# D       G      D        A7sus  A7
e-----0h2-------------------0h2-3-3------0h2---2--0------------0--
B----3---------3---3--5----3----------3------3--------3--2--2h3---
G---2----2---2---0-----2--2---------0-------2---2---0------2------
D--0--0-----0---0---4----0-----0---0---0-0----0----2---2--2-------
A------------------2--4---------------------------0--0---0--------
E----------2--2-------------------3--3----------------------------

   D        D/F#   G                    D        A7sus   D      A7sus
e--0h2---2----------------3------3------0h2--2---0----------0h2--0--0---
B------3----3---3---0---3-----3------3------3--------3-----3------3--3--
G-----2---2---2---0---0-----0---0--0-------2---0---0---0--2--------0--0-
D--0----0----0---0---0---0-0---0--0---0-0-----0---2---2--0-----0--------
A------------------------------------------------0--0------------0--0---
E-----------2--2----3--3--3--3---3--3-----------------------------------

Chorus (3)
  Dsus2          A7               G      D        G       D/F#   Em7     Asus  A   
e----0--0h2------0-----0------0---3------0h2------3--------------0---------0------
B---3-------3--3-----2----2-----------0------3-3------0---3---3------3----3----2--
G--2-------2--2----0--------0---0---0--0----2---2---0---0---2------0---0----2--2--
D-0---0-0----0----2---2----2---2---0-----0----0----0---0---0---0----------2----2--
A----------------0--0----0---0------------------------------------2---2--0---0-0--
E---------------------------------3--3------------3--3----2--2---0--0-------------

Outro (4)
      D'     D/C    G/B     Gm/Bb Dsus/A  D A7sus' A7 G/D     D
e-----5--7-5-2---2--5--3-2--3---3---3-2-----------------------0h2--
B-7-8---7--7---3------0-------3-----------3-3--3---2---3--3--------
G------7------2-2-0--0----0--0-0-----0--------2----0-----4-4--2----
D-----0--------------------------------------5----------5---5-0----
A------------3------2-------1-------0-------0----------5-----------
E------------------------------------------------------------------

Most uncommon chords (in alphabetic order!)

A/C#   - x4x25x
A7sus' - x0523x
Asus   - x02230
D'     - xx0775
D/A    - x00232
D/C    - x3x232
Dsus/A - x00033
Em7    - x22030
G/D    - x5543x
Gm/Bb  - x1003x

            
Submit corrections

↑ Back to top | Tablatures and chords for acoustic guitar and electric guitar, ukulele, drums are parodies/interpretations of the original songs. You may use it for private study, scholarship, research or language learning purposes only