Home » G » Garth Brooks »

Garth Brooks - Baby Lets Lay Down And Dance Tabs

Artists:  A B C D E F G H I J K L M N O P Q R S T U V W X Y Z # 

Baby Lets Lay Down And Dance Tabs

(ver. 1) Click to play this song!
Garth Brooks
 Rating:
4.3/5 (16 votes)
                [Intro}
e|--X-X---------------------------------------------------------------|
B|--X-X---------------------------------------------------------------|
G|--X-X-------7-7-7h9--9-9-9p7----------------------------------------|
D|--X-X-------0-0------0-0------------------7h9--9-9-9p7--------------|
A|--X-X--------------------------------10---0----0-0-0----------------|
E|--X-X--7\2--------------------10h12---------------------------------|

e|--------------------------------------------------------------------|
B|--------------------------------------------------------------------|
G|------------7-7-7h9--9-9-9p7----------------------------------------|
D|------------0-0------0-0------------------7h9--9-9-9p7--------------|
A|-------------------------------------10---0----0-0-0----------------|
E|------------------------------10h12---------------------------------|

e|--------------------------------------------------------------------|
B|--------------------------------------------------------------------|
G|------------7-7-7h9--9-9-9p7----------------------------------------|
D|------------0-0------0-0------------------7h9--9-9-9p7--------------|
A|-------------------------------------10---0----0-0-0----------------|
E|------------------------------10h12---------------------------------|

e|--------------------------------------------------------------------|
B|--------------------------------------------------------------------|
G|------------7-7-7h9--9-9-9p7----------------------------------------|
D|------------0-0------0-0------------------7h9--9-9-9p7--------------|
A|-------------------------------------10---0----0-0-0----------------|
E|------------------------------10h12---------------------------------|

[Verse]
G
I get this feeling that I can't explain

Every time I see your face and hear your name
          Cadd9
I just go crazy, thinking baby this could be my chance

e|--------------------------------------------------------------------|
B|--------------------------------------------------------------------|
G|------------7-7-7h9--9-9-9p7----------------------------------------|
D|------------0-0------0-0------------------7h9--9-9-9p7--------------|
A|-------------------------------------10---0----0-0-0----------------|
E|------------------------------10h12---------------------------------|

               Am
What would you say to me
          Cadd9
If I said baby let's lay down and dance

e|--------------------------------------------------------------------|
B|--------------------------------------------------------------------|
G|------------7-7-7h9--9-9-9p7----------------------------------------|
D|------------0-0------0-0------------------7h9--9-9-9p7--------------|
A|-------------------------------------10---0----0-0-0----------------|
E|------------------------------10h12---------------------------------|

G
I gots to tell you girl, you drive me wild

Every time I see you dance and see that smile
              Cadd9
My world gets hazy and I'm moving like I'm in a trance

e|--------------------------------------------------------------------|
B|--------------------------------------------------------------------|
G|------------7-7-7h9--9-9-9p7----------------------------------------|
D|------------0-0------0-0------------------7h9--9-9-9p7--------------|
A|-------------------------------------10---0----0-0-0----------------|
E|------------------------------10h12---------------------------------|

G                Am
Whoa I know it's crazy
    Cadd9                   G
But baby let's lay down and dance

[Chorus]
Em               D                Cadd9          
When it comes to love my heart is black and it's blue
Am                          G
Swore I was through with romance
Em              D
But girl you're something and I'm nothing to lose
        Cadd9
And I'm counting on you
          Am               D
You're my brand new second chance

G
My friends all tell me that I'm not your kind

They say I better pray your love is blind
          Cadd9
You gotta save me, I'm a victim of you're circumstance

e|--------------------------------------------------------------------|
B|--------------------------------------------------------------------|
G|------------7-7-7h9--9-9-9p7----------------------------------------|
D|------------0-0------0-0------------------7h9--9-9-9p7--------------|
A|-------------------------------------10---0----0-0-0----------------|
E|------------------------------10h12---------------------------------|

G                Am
Whoa I know it's crazy
                            G
But baby let's lay down and dance

[Solo] - I'm not sure about this part

G  Em  C    G   Em  C    G  C    G  C   G  C    C  - pretty sure it's these chord for solo part

[Chorus]
Em               D                Cadd9
When it comes to love my heart is black and it's blue
Am                            G
Thought I was through with romance
Em              D
But girl you're something
        Cadd9
And I'm nothing to lose
          Am               D
You're my brand new second chance

[Verse]
G
I gots to tell you girl you drive me wild

I've never known no one with quite your style
          Cadd9
I'm going crazy thinking baby this could be my chance

e|--------------------------------------------------------------------|
B|--------------------------------------------------------------------|
G|------------7-7-7h9--9-9-9p7----------------------------------------|
D|------------0-0------0-0------------------7h9--9-9-9p7--------------|
A|-------------------------------------10---0----0-0-0----------------|
E|------------------------------10h12---------------------------------|

               Am
What would you say to me
          Cadd9
If I said baby let's lay down and dance

e|--------------------------------------------------------------------|
B|--------------------------------------------------------------------|
G|------------7-7-7h9--9-9-9p7----------------------------------------|
D|------------0-0------0-0------------------7h9--9-9-9p7--------------|
A|-------------------------------------10---0----0-0-0----------------|
E|------------------------------10h12---------------------------------|

                 Am
Girl I know it's crazy
    Cadd9
But baby let's lay down and dance            
Submit corrections

↑ Back to top | Tablatures and chords for acoustic guitar and electric guitar, ukulele, drums are parodies/interpretations of the original songs. You may use it for private study, scholarship, research or language learning purposes only