Home » G » Gabrielle »

Gabrielle - Dreams Bass

Artists:  A B C D E F G H I J K L M N O P Q R S T U V W X Y Z # 

Dreams Bass

(ver. 1) Click to play this song!
Gabrielle
Gabrielle - Dreams
Bass Tabs

Tuning: DADG

G -------------------------------|-------------------------------|
D -------------------------------|-------------------------------|
A -------0--0---0------------04--|-------0--0---0-----------0-4--|
D -0--0--------2-4--4--2--2------|-0--0--------2-4--4--2--2------|

G -------------------------------|-------------------------------|
D -------------------------------|-------------------------------|
A -------0--0---0------------04--|-------0--0---0----------------|
D -0--0--------2-4--4--2--2------|-0--0--------2-4-----6---------|

G -------------------------------|-------------------------------|
D -------------------------------|-------------------------------|
A -------0--0---0------------04--|-------0--0---0-----------0-4--|
D -0--0--------2-4--4--2--2------|-0--0--------2-4--4--2--2------|

G -------------------------------|-------------------------------|
D -------------------------------|-------------------------------|
A -------0--0---0------------04--|-------0--0---0----------------|
D -0--0--------2-4--4--2--2------|-0--0--------2-4--4--2---------|

G -------------------------|-------------------------|
D -------------------------|-------------------------|
A -------0--0--------------|-------0--0--------------|
D -0--0--------4--4--2--2--|-0--0--------4--4--2--2--|

G -------------------------|-------------------------|
D -------------------------|-------------------------|
A -------0--0--------------|-------0--0--------------|
D -0--0--------4--4--2--2--|-0--0--------4--4--2--2--|

[repeat all of the above one more time]

[pause]

G -------------------------------|-------------------------------|
D -------------------------------|-------------------------------|
A -------0--0---0------------04--|-------0--0---0-----------0-4--|
D -0--0--------2-4--4--2--2------|-0--0--------2-4--4--2--2------|

G -------------------------|-------------------------|
D -------------------------|-------------------------|
A -------0--0--------------|-------0--0--------------|
D -0--0--------4--4--2--2--|-0--0--------4--4--2--2--|

G -------------------------|-------------------------|
D -------------------------|-------------------------|
A -------0--0--------------|-------0--0--------------|
D -0--0--------4--4--2--2--|-0--0--------4--4--2--2--|

Enjoy...

f.b
            
Submit corrections

↑ Back to top | Tablatures and chords for acoustic guitar and electric guitar, ukulele, drums are parodies/interpretations of the original songs. You may use it for private study, scholarship, research or language learning purposes only