Home » G » Gabriella Cilmi »

Gabriella Cilmi - Let There Be Night Chords

Artists:  A B C D E F G H I J K L M N O P Q R S T U V W X Y Z # 

Let There Be Night Chords

(ver. 1) Click to play this song!
Gabriella Cilmi
 Rating:
4.4/5 (7 votes)
                [Intro]
      Cm        Eb               Bb          Gm
e|-------------|----------------|-----------|----------|
B|-------------|----------------|-----------|--------1-|
G|---0-0----0--|-0-3--0------0--|----------1|-0-----0-0|
D|----3-------3|-----3---------3|-3-----3-3-|----------|
A|-3-------3---|-----------3----|-----------|----------|
E|-------------|----------------|-----------|----------|
  C5 (Cm)       Eb                 Bb             Gm           Eb
e|-------------|-------------------|1----1-3--1--|-----1------|---1------------------|
B|-1-4-3----1--|-1-4-3-4------3-4-1|----4-------4|-3-4-----4-3|-1---4-3-4-2-1-0-1----|
G|------0--0-0-|---------0-1-3-----|-------------|------------|------(fast)-------1-0|
D|-------------|-------------(fast)|-------------|------------|----------------------|
A|-------------|-------------------|-------------|------------|----------------------|
E|-------------|-------------------|-------------|------------|----------------------|
 
 
[Verse 1]
  Cm                  Eb           Gm          Cm
e|-------------------|------------|-----------|-------------|
B|---1-3-1-------1-3-|------------|------1----|-------------|
G|-0-----------0-----|-3----------|-3---3--4-3|-4-3-1----1-3|
D|-------------------|------------|-----------|---------0---|
A|-------------------|------------|-----------|-------------|
E|-------------------|------------|-----------|-------------|
 
  Cm         Eb       F            Gm
e|----------|-------3|-1-1-1---3-4|-3-----------|
B|-1-----1-3|-4------|------------|----------1-3|
G|-----0----|--------|------------|---------3---|
D|----------|--------|------------|-------------|
A|----------|--------|------------|-------------|
E|----------|--------|------------|-------------|
 
  Cm         Eb        Gm           Cm
e|----------|---------|------1----|----------------|
B|-1-----1-3|---------|-3---3-4-3-|--4-3-1-----1-3-|
G|-----0----|-3-------|-----------|----------0-----|
D|----------|---------|-----------|----------------|
A|----------|---------|-----------|----------------|
E|----------|---------|-----------|----------------|
 
  Cm         Eb       F            Gm
e|----------|-------3|-1-1-1---3-4|-3--------|
B|-1-----1-3|-4------|------------|----------|
G|-----0----|--------|------------|----------|
D|----------|--------|------------|----------|
A|----------|--------|------------|----------|
E|----------|--------|------------|----------|
 
 
 
[Chorus] one Oktave higher
 Cm                    Eb                Bb          Gm
e|--------------------|----------------|------------|-------------|
B|--------------------|----------------|------------|-------------|
G|-----0--0--------0--|-0-3---0-----0--|-----------1|-0--------0--|
D|---3--3------------3|-----3---------3|-3-----3-3--|------------3|
A|-3-------------3----|-----------3----|------------|--------3----|
E|--------------------|----------------|------------|-------------|
 
  Cm               Eb                Bb             Gm
e|----------------|-----------------|--------------|--------------|
B|----------------|-----------------|--------------|--------------|
G|-0----------0---|-0-3---0------0--|--------------|--------------|
D|--------------3-|-----3----------3|-3-------0-1-0|-0------------|
A|---------3------|------------3----|--------------|--------------|
E|----------------|-----------------|--------------|--------------|
 
 
[Melody]
  Cm                  Eb                   Bb                     Gm
e|-------------------|--------------------|----------------------|----------------|
B|-------------------|--------------------|----------------------|----------------|
G|-0-----0---0-1-0--0|-0---0---0-1-0---0--|----------------------|----------------|
D|----1--------------|--------------------|-3-0---3-0---1-0-1-0--|-1-0-0-----0----|
A|-3---3---3-------3-|---3---3-------3---3|-----1-----1---------1|-------3-1---3-1|
E|-------------------|--------------------|----------------------|----------------|
Cm                        Eb               Bb                     Gm
e|-----------------------|-----------------|---------------------|-----------------|
B|-----------------------|-----------------|---------------------|-----------------|
G|-0-----0---0-1-0----0--|-0--0--0-1-0--0--|---------------------|-----------------|
D|---2-------------------|-----------------|-3-0---3-0---1-0-1-0-|-1-0-0-----0-----|
A|-----3---3--------3---3|---3--3------3--3|-----1-----1--------1|-------3-1---3-1-|
E|-----------------------|-----------------|---------------------|-----------------|
 
 
[Vers 2]
  Cm                  Eb           Gm          Cm
e|-------------------|------------|-----------|-------------|
B|---1-3-1-------1-3-|------------|------1----|-------------|
G|-0-----------0-----|-3----------|-3---3--4-3|-4-3-1----1-3|
D|-------------------|------------|-----------|---------0---|
A|-------------------|------------|-----------|-------------|
E|-------------------|------------|-----------|-------------|
 
  Cm         Eb       F            Gm
e|----------|-------3|-1-1-1---3-4|-3-----------|
B|-1-----1-3|-4------|------------|----------1-3|
G|-----0----|--------|------------|---------3---|
D|----------|--------|------------|-------------|
A|----------|--------|------------|-------------|
E|----------|--------|------------|-------------|
 
  Cm         Eb        Gm           Cm
e|----------|---------|------1----|----------------|
B|-1-----1-3|---------|-3---3-4-3-|--4-3-1-----1-3-|
G|-----0----|-3-------|-----------|----------0-----|
D|----------|---------|-----------|----------------|
A|----------|---------|-----------|----------------|
E|----------|---------|-----------|----------------|
 
  Cm         Eb       F            Gm
e|----------|-------3|-1-1-1---3-4|-3--------|
B|-1-----1-3|-4------|------------|----------|
G|-----0----|--------|------------|----------|
D|----------|--------|------------|----------|
A|----------|--------|------------|----------|
E|----------|--------|------------|----------|
 
 
[Chorus] one Oktave higher
 Cm                    Eb                Bb          Gm
e|--------------------|----------------|------------|-------------|
B|--------------------|----------------|------------|-------------|
G|-----0--0--------0--|-0-3---0-----0--|-----------1|-0--------0--|
D|---3--3------------3|-----3---------3|-3-----3-3--|------------3|
A|-3-------------3----|-----------3----|------------|--------3----|
E|--------------------|----------------|------------|-------------|
  Cm               Eb                Bb             Gm
e|----------------|-----------------|--------------|--------------|
B|----------------|-----------------|--------------|--------------|
G|-0----------0---|-0-3---0------0--|--------------|--------------|
D|--------------3-|-----3----------3|-3-------0-1-0|-0------------|
A|---------3------|------------3----|--------------|--------------|
E|----------------|-----------------|--------------|--------------|
 
[Guitar Solo]
e|-----------------------------------------------------------------------------------------|
B|-----------------------------------------------------------------------------------------|
G|-------0-1-0-------0---------------------------------------------------------------------|
D|-1-1-3-------3-1-3----3--0-------------0-1-0-----------------------------------------0--1|
A|-3---------------------------3---1-1-3--------3-1-3----------1-------------------1-3----3|
E|-----------------------------------------------------3-1-3-4---4-3-4--3-3--1-3-4---------|
 
[Bridge]
       Cm         Eb          Bb          Bbm
e|---------------|-----------|----------|--------|
B|---------------|-----------|----------|--------|
G|-0---0--0----0-|-0--0----0-|----3-----|-----0--|
D|---3----1-----3|----1-----3|-3--0--0-0|-0------|
A|--------3-3----|----1---3--|----1-----|----1---|
E|---------------|-----------|----------|--------|
 
[Chorus] one Oktave higher
 Cm                    Eb                Bb          Gm
e|--------------------|----------------|------------|-------------|
B|--------------------|----------------|------------|-------------|
G|-----0--0--------0--|-0-3---0-----0--|-----------1|-0--------0--|
D|---3--3------------3|-----3---------3|-3-----3-3--|------------3|
A|-3-------------3----|-----------3----|------------|--------3----|
E|--------------------|----------------|------------|-------------|
  Cm               Eb                Bb             Gm
e|----------------|-----------------|--------------|--------------|
B|----------------|-----------------|--------------|--------------|
G|-0----------0---|-0-3---0------0--|--------------|--------------|
D|--------------3-|-----3----------3|-3-------0-1-0|-0------------|
A|---------3------|------------3----|--------------|--------------|
E|----------------|-----------------|--------------|--------------|
 
[Solo]
   C5                      Eb5               Bb5              B5
e|-----|-----------------|-----------------|-----------------|-----|
B|-----|-----------------|-----------------|-----------------|-----|
G|-----|-----------------|-3-3-3-3-3-3-3-3-|-----------------|-----|
D|--5--|-5-5-5-5-5-5-5-5-|-1-1-1-1-1-1-1-1-|-3-3-3-3-3-3-3-3-|-4---|
A|--3--|-3-3-3-3-3-3-3-3-|-----------------|-1-1-1-1-1-1-1-1-|-2---|
E|-----|-----------------|-----------------|-----------------|-----|
 
 
[Melody]
  Cm                  Eb                   Bb                     Gm
e|-------------------|--------------------|----------------------|----------------|
B|-------------------|--------------------|----------------------|----------------|
G|-0-----0---0-1-0--0|-0---0---0-1-0---0--|----------------------|----------------|
D|----1--------------|--------------------|-3-0---3-0---1-0-1-0--|-1-0-0-----0----|
A|-3---3---3-------3-|---3---3-------3---3|-----1-----1---------1|-------3-1---3-1|
E|-------------------|--------------------|----------------------|----------------|
Cm                        Eb               Bb                     Gm
e|-----------------------|-----------------|---------------------|-----------------|
B|-----------------------|-----------------|---------------------|-----------------|
G|-0-----0---0-1-0----0--|-0--0--0-1-0--0--|---------------------|-----------------|
D|---2-------------------|-----------------|-3-0---3-0---1-0-1-0-|-1-0-0-----0-----|
A|-----3---3--------3---3|---3--3------3--3|-----1-----1--------1|-------3-1---3-1-|
E|-----------------------|-----------------|---------------------|-----------------|
 
 
[Chorus] one Oktave higher
 Cm                    Eb                Bb          Gm
e|--------------------|----------------|------------|-------------|
B|--------------------|----------------|------------|-------------|
G|-----0--0--------0--|-0-3---0-----0--|-----------1|-0--------0--|
D|---3--3------------3|-----3---------3|-3-----3-3--|------------3|
A|-3-------------3----|-----------3----|------------|--------3----|
E|--------------------|----------------|------------|-------------|
  Cm               Eb                Bb             Gm   Cm
e|----------------|-----------------|--------------|----|-3--------|
B|----------------|-----------------|--------------|----|-4--------|
G|-0----------0---|-0-3---0------0--|--------------|----|-5--------|
D|--------------3-|-----3----------3|-3-------0-1-0|-0--|-5--------|
A|---------3------|------------3----|--------------|----|-3--------|
E|----------------|-----------------|--------------|----|----------|
            
Submit corrections

↑ Back to top | Tablatures and chords for acoustic guitar and electric guitar, ukulele, drums are parodies/interpretations of the original songs. You may use it for private study, scholarship, research or language learning purposes only