Home » F » Fugees »

Fugees - The Score Tabs

Artists:  A B C D E F G H I J K L M N O P Q R S T U V W X Y Z # 

The Score Tabs

(ver. 1) Click to play this song!
Fugees
[Main Riff]

e|-----------------------------------------------------------|
B|----5p4----4----4--------------4h5p4----4------------------| 
G|--6------6----6--------------6--------6---6----------------| Repeats throughout
D|-----------------------------------------------------------|
A|-----------------------------------------------------------|
E|-----------------------------------------------------------|

[Variation]

e|----------------7/9----------------------------------------|
B|--4-h5-/7------------9---------4h5p4----4------------------|
G|-----------------------------6--------6---6----------------| 
D|-----------------------------------------------------------|
A|-----------------------------------------------------------|
E|-----------------------------------------------------------|
            
Submit corrections

↑ Back to top | Tablatures and chords for acoustic guitar and electric guitar, ukulele, drums are parodies/interpretations of the original songs. You may use it for private study, scholarship, research or language learning purposes only