» » »

Fuel - Most Of All Bass

Artists:  A B C D E F G H I J K L M N O P Q R S T U V W X Y Z # 

Most Of All Bass

(ver. 1) Click to play this song!
Fuel
 Rating:
4/5 (4 votes)

 Most Of All lessons Tabs too difficult? Try these video lessons and learn fast
 
                I'm very sure on most all of this. I doubt you'll have any problems.

Intro/Verse
G||-------------------------------------||
D||-------------------------------------||
A||-55555555-00000000-22222222----------||
E||----------------------------33333333-||

Chorus
G||---------------------------------||
D||---------------------------------||
A||-5-5-555--0-0-000----------------||
E||------------------0-0-0-1-2-3~/4-||

Interlude
Not quite sure here
               /-------------------\     
G||------------||-----------|---------|-------------------|
D||------------||--5h7p5----|--5-3-2--|----------00000000-|
A||-4--------0-||--------7--|---------|-------------------|
E||----5--2----||-----------|---------|-4-4-4-444---------|

Solo
G|-------------------------------------|
D|-------------------------------------|
A|-55555555-00000000-22222222----------|
E|----------------------------33333333-|
                              
G|---------------------------------|----------|
D|---------------------------------|----------|
A|-4-4-444--0-0-000----------------|----------|
E|------------------0-0-0-1-2-3~/4-|--4-4~-3--|

End
G||-------------------------------------||
D||-------------------------------------||
A||-55555555-00000000-22222222----------||
E||----------------------------33333333-||
            
Submit corrections


        Most Of All lessons Hard to play? Try these video lessons and learn fast Most Of All lessons
        
↑ Back to top | Tablatures and chords for acoustic guitar and electric guitar, ukulele, drums are parodies/interpretations of the original songs. You may use it for private study, scholarship, research or language learning purposes only