» » »

Fuel - Million Miles Bass

Artists:  A B C D E F G H I J K L M N O P Q R S T U V W X Y Z # 

Million Miles Bass

(ver. 1) Click to play this song!
Fuel
 Rating:
4.3/5 (20 votes)

 Million Miles lessons Tabs too difficult? Try these video lessons and learn fast
 
                [Intro]

G|---------------------------------------------------------------------|
D|---------------------------------------------------------------------|
A|13-------11--------9--------6---13--------11--------9--------6-------|
D|---------------------------------------------------------------------|

G|------------------------------------------------------------------------|
D|-------------------------------------------------------------------13---|
A|13-------11--------9--------6---13--------11--------9-------6-9-13------|
D|------------------------------------------------------------------------|


[Verse]

G|---------------------------------------------------------------------------|
D|---------------------------------------------------------------------------|
A|---------------------------------------------------------------------------|
D|8-8-0-6h-0-6h-8-4-4-0-4h-0-4h-6-2-2-0-2h-0-2h-4-0-0------------------------|(x2)

G|---------------------------------------------------------------------------|
D|---------------------------------------------------------------------------|
A|---------------------------------------------------------------------------|
D|8-8-8-8-8-8-8-8-6-6-6-6-6-6-6-6-4-4-4-4-4-4-4-4-1-4-8-13-------------------|


[Chorus]

G|---------------------------------------------------------------------------|
D|---------------------------------------------------------------------------|
A|---------------------------------------------------------------------------|
D|4-4--6-6--0-8h-0-8h-0-8h-0-8h-11-13-11-4-4-6-8-1---------13\-----x---------|
  ^"4-4-6-8-1" is only played on third repeat in first two choruses, seventh repeat in final chorus

G|------------------------------------------|
D|------------------------------------------|
A|13-13-13-13-11-11-11-11-9-9-9-9-6-6-6-----|
D|------------------------------------------|
  ^Only played after first verse 


[Bridge]

G|--------|
D|--------|
A|--------|
D|8--2-2-1|(x4)


[Solo]

G|---------------------------------------------------------------------------------------|
D|---------------------------------------------------------------------------------------|
A|13---------13----13-------9----------9-9---11-9-8-6--6--8--6--8--9--11--8--------------|
D|-----15-------15----15-15------11------------------------------------------------------|


[Outro]

G|------------------------------------------------------------------|
D|-----------------------------------13-----------------------------|
A|13-------11--------9--------6-9-13--------------------------------|
D|------------------------------------------------------------------|            
Submit corrections


        Million Miles lessons Hard to play? Try these video lessons and learn fast Million Miles lessons
        
↑ Back to top | Tablatures and chords for acoustic guitar and electric guitar, ukulele, drums are parodies/interpretations of the original songs. You may use it for private study, scholarship, research or language learning purposes only