» » »

Fuel - Forever Tabs

Artists:  A B C D E F G H I J K L M N O P Q R S T U V W X Y Z # 

Forever Tabs

(ver. 1) Click to play this song!
Fuel
 Rating:
4/5 (4 votes)

 Forever lessons Tabs too difficult? Try these video lessons and learn fast
 
                
Tuning: D A D G B E



1st Verse:

------------------|
------------------|
------------------| x4
--7-7-7-7-x-x-x-x-|
--5-5-5-5-5-5-5-5-|
--x-x-x-0-5-5-5-5-|

--------------------|
--------------------|
--------------------|
--x-x-x-x-x-x-x-x---|
--7-7-7-7-7-4-4-4/5-|
--7-7-7-7-7-4-4-4/5-|



2nd Verse:

------------------|
------------------|
------------------|x3
--7-7-7-7-x-x-x-x-|
--5-5-5-5-5-5-5-5-|
--x-x-x-0-5-5-5-5-|

Fill: (after 4th bar)

------------------|
------------------|
------------------|
------------------|
--4-4-4-5-4-4-4-5-|
--4-4-4-5-4-4-4-5-|

--------------------------|
--------------------------|
----------4-4/6-6/7-7-----|
--7-7-7-7-x-x-x-x-x-x-----|
--5-5-5-5-2-2/4-4/5-5-5-5-|
--x-x-x-0-------------5-5-|





Chorus:

---------------0------------------------|
-----------0---3--3---------------------|
--7---7-4--4---2--4---------------------|
--7---7-4--5---0--4---------------------|
--5---4-2--5---0--2--4-4-4--4-4-5-4-4-5-|
---------------0-----4-4-4--4-4-5-4-4-5-|



Bridge:

--------------------------------------------------------|
--------------------------------------------------------|
--------------------------------------------------------|
--2-2-2-2-4-4-4-4-5-5-5-5-------------------------------|
--0-0-0-0-2-2-2-2-3-3-3-3-5-4-0-5--4---5-4-0-5--4--0----|
--------------------------5-4-0-5--4---5-4-0-5--4--0----|
                                                   Let Ring


Solo:

------------------------------------------------------------------|
------------------------------------------------------------------|
------------------------------------------------------------------|
------------------------------------------------------------------|
--0-0-x-0-0-x-0-0-x-0-0-x-0-0-x-0-0-x-0-0-x-0-0-x-----------------|
--0-0-x-0-0-x-0-0-x-0-0-x-0-0-x-0-0-x-0-0-x-0-0-x-5-4-0-5-4-0-5-4-|

------------------------------------------------------------------|
------------------------------------------------------------------|
------------------------------------------------------------------|
------------------------------------------------------------------|
--0-0-x-0-0-x-0-0-x-0-0-x-0-0-x-0-0-x-0-0-x-0-0-0-0-0-x-----------|
--0-0-x-0-0-x-0-0-x-0-0-x-0-0-x-0-0-x-0-0-x-0-0-0-0-0-x-----------|



Outro:

------------------------------------|
------------------------------------|
------------------------------------| x3
------------------------------------|
--5-5-5-5-7-7-7-7-9-9-9-9-5-5-5-5-5-|
--5-5-5-5-7-7-7-7-9-9-9-9-5-5-5-5-5-|

----------------------------------------|
----------------------------------------|
----------------------------------------|
-----------------------------------7----|
--5-5-5-5-7-7-7-7-9-9-9-9----------5----|
--5-5-5-5-7-7-7-7-9-9-9-9-9-7-5-0--0----|
                                   Let Ring
            
Submit corrections


        Forever lessons Hard to play? Try these video lessons and learn fast Forever lessons
        
↑ Back to top | Tablatures and chords for acoustic guitar and electric guitar, ukulele, drums are parodies/interpretations of the original songs. You may use it for private study, scholarship, research or language learning purposes only