» » »

Fruit Bats - Rainbow Sign Tabs

Artists:  A B C D E F G H I J K L M N O P Q R S T U V W X Y Z # 

Rainbow Sign Tabs

(ver. 1) Click to play this song!
Fruit Bats
 Rating:
4/5 (4 votes)

 Rainbow Sign lessons Tabs too difficult? Try these video lessons and learn fast
 
                Fruit Bats

Intro:
  D              Bb         D              B
------------------------------------------------------
---------------------3-------------------------4------
--2-0--------2-0---3---0----2-0--------2-0---4---0----
------4-0--------3--------------4-0--------4----------  x2
------------------------------------------------------
------------------------------------------------------

Verse: A D A Em D
Chorus: G C Em D
        G C Em D C
Solo:
 A                    D       A        Em            D
-----------2---------4-2---0-----------------------------2-4-2-0--
--2--2-4-2-----2-4-2---------4-2--0---0---------0-----------------   x2
------------------------------------4---2---2h4---4-0-0-----------
Ending: Intro D

bring on the rain
till the lord make it sow, make it sow
bring on the wind
let it blow, let it blow, let it blow
waiting for the rainbow sign
waiting for the rainbow sign
bring on the hail
let it sting, let it sting, let in sting
beneath the cloud of crows
let em sing, let em sing, let em sing
waiting for the rainbow sign
waiting for the rainbow sign
waiting for the rainbow sign
waiting for the rainbow sign
            
Submit corrections


        Rainbow Sign lessons Hard to play? Try these video lessons and learn fast Rainbow Sign lessons
        
↑ Back to top | Tablatures and chords for acoustic guitar and electric guitar, ukulele, drums are parodies/interpretations of the original songs. You may use it for private study, scholarship, research or language learning purposes only