Home » F » From First To Last »

From First To Last - Shame Shame Bass

Artists:  A B C D E F G H I J K L M N O P Q R S T U V W X Y Z # 

Shame Shame Bass

(ver. 1) Click to play this song!
From First To Last
Heroine- 2006
Tuning- CGCF

(as in corrections), etc.

Intro
F|----------------------------------------|
C|----------------------------------------|
G|----------------------------------------|
C|-0--0-0-0-0--0-0-0-0--0-0-0-0--0-0-0-0~-|

Verse
|-------------------------------------------------------------------------|
|-------------------------------------------------------------------------|
|-------------------------------------------------------------------------|
|-4-4-4-4-4-4-4-4-4-4-4-4-4-4-4-4-4-4-4-4-4-4-4-4-2-2-2-2-2-2-2-2-2-2-2-2-|

|------------------------|
|------------------------|
|------------------------|(X2)
|7-7-7-7-7-7-0-0-0-0-0-0-|

Pre-Chorus
|------------------------------------------------------------|
|------------------------------------------------------------|
|------------------------------------------------------------|
|0-0-0-0-0-0--0-0-0-0-0-0--11h12-11h12p11p0-11h12-11h12p11p0-|

|--------------------|
|--------------------|
|-000000000----------|(X2)
|----------333333333-|

Chorus
|-----------------------------------|
|-----------------------------------|
|-----------------------------------|(X2)
|-44-4-4-0--44-4-4-0--7-6-4~-7-6-2~-|

Fill
|----------------------|
|----------------------|
|----------------------|
|0--4\\\0-4\\\0-16\\\4-|

Verse
|-------------------------------------------------------------------------|
|-------------------------------------------------------------------------|
|-------------------------------------------------------------------------|
|-4-4-4-4-4-4-4-4-4-4-4-4-4-4-4-4-4-4-4-4-4-4-4-4-2-2-2-2-2-2-2-2-2-2-2-2-|

|------------------------|
|------------------------|
|------------------------|(X2)
|7-7-7-7-7-7-0-0-0-0-0-0-|

Fill
|--------------------------------------|
|--------------------------------------|
|--------------------------------------|(X2)
|-4-4-4-4-4-4-4--44--22--77-7-7-00-0-0-|

Pre-Chorus
|------------------------------------------------------------|
|------------------------------------------------------------|
|------------------------------------------------------------|
|0-0-0-0-0-0--0-0-0-0-0-0--11h12-11h12p11p0-11h12-11h12p11p0-|

|--------------------|
|--------------------|
|-000000000----------|(X2)
|----------333333333-|

Chorus
|-----------------------------------|
|-----------------------------------|
|-----------------------------------|(X2)
|-44-4-4-0--44-4-4-0--7-6-4~-7-6-2~-|

Pre-Bridge
|------------------------------------------------|
|------------------------------------------------|
|------------------------------------------------|
|7-7-7-7-7-7-7-7-7-7-7-7-8-8-8-8-8-8-8-8-8-8-8-8-|
                    Second time:
|--------------|   |------------------------------------|
|--------------|   |------------------------------------|
|--------------|   |------------------------------------|
|4-x-x-x-x-(x4)|   |4-x-x-x-x-4-x-x-x-x-4-x-x-x-x-4-4-4-|

Bridge
|------------------------------------------------|
|------------------------------------------------|
|------------------------------------------------|
|4-x-x-x-x-x-x-x-x-x-x-x-x-4-x-x-x-x-4-x-x-x-x-4-|

|-----------------------------------------------|
|-----------------------------------------------|
|-----------------------------------------------|
|x-x-x-x-x-x-x-x-x-x-x-x-4-x-x-x-x-3-x-x-x-x-0~-|

Chorus
|-----------------------------------|
|-----------------------------------|
|-----------------------------------|(X4)
|-44-4-4-0--44-4-4-0--7-6-4~-7-6-2~-|

Outro
|------------------------------|
|------------------------------|
|------------------------------|
|0-16\\\4-4-0-(X6)--16\\\4-4-0~|


Key:
h- hammer on
p- pull off
\- slide down
~- let ring
(X#)- times played
            
Submit corrections

↑ Back to top | Tablatures and chords for acoustic guitar and electric guitar, ukulele, drums are parodies/interpretations of the original songs. You may use it for private study, scholarship, research or language learning purposes only