» » »

Frente - Labour Of Love Chords

Artists:  A B C D E F G H I J K L M N O P Q R S T U V W X Y Z # 

Labour Of Love Chords

(ver. 1) Click to play this song!
Frente
 Rating:
4.2/5 (5 votes)

 Labour Of Love lessons Tabs too difficult? Try these video lessons and learn fast
 
                Labour of love          Frente
  
F#m 244222   A      002220
E   022100   B      224442
D*  xxx23x   Dsus2  xxx230

F#m    A
Am I fooling you,
        E                       B
Do you fall for it all, do you just see right through?
F#m         A           E      B
Are you as cool as you believe?
F#m       A
Are you playing hard,
E                        B
Are you waiting just to quietly clock my card?
F#m      A            E          B
Are you waiting for a moment to leave?

I don't know how I bent,
What you said, to what I believe you meant.
I don't know anything at all.
I'm standing in the push and shove
And I'm just within the rescue of the labour of your love,
I can't do anything but fall.

Chorus
D*
Why do I feel like I can never find you?
Dsus2 (?)
Why do I feel like I'm the only survivor?
F#m        A           E                   B 
Why am I thinking of, you and me and the labour of love.

One chance, one shot,
That's all anybody ever got.
Newborn, still warm,
Naked in the rush hour, dancing in my gutter.
And if you want to find me,
Call me I'll be far from the cars and guitars and everybody.

(Chorus)

(Recorder/Guitar fill)

And I never knew before,
But I feel like a child in a cold cold war.
So strong, so tough,
Sitting in suburbia waiting for the wind-up.

(Chorus)

Recorder/Guitar fill

E|---4--2-0---------|4--2-0--4-2--0-0-2----2----420--0-2--5--7-|   
B|-2--------2--2--2-|------------------------------------------|   
G|------------------|------------------------------------------|   
D|------------------|------------------------------------------|   
A|------------------|------------------------------------------|   
E|------------------|------------------------------------------|

E|-8>9-12-9--5-7--5---------|7-5----5-------------------------5--7-|   
B|------------------5--7-5--|-----7----7----5---5---5---5--7-------|  
G|--------------------------|------------6------------6------------|   
D|--------------------------|--------------------------------------|
A|--------------------------|--------------------------------------|   
E|--------------------------|--------------------------------------|

E|-8>9-12-9--5-7--5---------|7-5----5-------------------------5--7-|   
B|------------------5--7-5--|-----7----7----5---5---5---5--7-------|  
G|--------------------------|------------6------------6------------|   
D|--------------------------|--------------------------------------|
A|--------------------------|--------------------------------------|   
E|--------------------------|--------------------------------------|


                                   (12 if you can't get 20)
E|-8>9-0-0-1-2--------420-0-0-7-7-7-20--|
B|--------------------------------------|
G|--------------------------------------|
D|--------------------------------------|
A|--------------------------------------|
E|--------------------------------------|
            
Submit corrections


        Labour Of Love lessons Hard to play? Try these video lessons and learn fast Labour Of Love lessons
        
↑ Back to top | Tablatures and chords for acoustic guitar and electric guitar, ukulele, drums are parodies/interpretations of the original songs. You may use it for private study, scholarship, research or language learning purposes only