Home » F » Frei Wild »

Frei Wild - Arschtritt Tabs

Artists:  A B C D E F G H I J K L M N O P Q R S T U V W X Y Z # 

Arschtritt Tabs

(ver. 1) Click to play this song!
Frei Wild
Artist : Frei.Wild
Song   : Arschtritt
Album  : Hart am Wind

Icq   : 401228143

It's my first Tab so its maybe not perfect :) Pls say me Fails.


Intro:

E-----------------------------------------------------------------------|
B-----------------------------------------------------------------------|
G-----------------------------------------------------------------------|
D--9---999999---9---99---9---99---9/---5---555555---5---55---5---55---5-|
A--9---999999---9---99---9---99---9/---5---555555---5---55---5---55---5-|
E--7---777777---7---77---7---77---7/---3---333333---3---33---3---33---3-|
       ......       ..       ..            ......       ..       ..

E----------------------------------------------------------------------|
B----------------------------------------------------------------------|
G----------------------------------------------------------------------|
D--2---222222---2---22---2---22---2---7---777777---7---77---7---77---7-|
A--2---222222---2---22---2---22---2---7---777777---7---77---7---77---7-|
E--0---000000---0---00---0---00---0---5---555555---5---55---5---55---5-|
       ......       ..       ..           ......       ..       ..

E-----------------------------------------------------------------------|
B-----------------------------------------------------------------------|
G-----------------------------------------------------------------------|
D--9---999999---9---99---9---99---9/---5---555555---5---55---5---55---5-|
A--9---999999---9---99---9---99---9/---5---555555---5---55---5---55---5-|
E--7---777777---7---77---7---77---7/---3---333333---3---33---3---33---3-|
       ......       ..       ..            ......       ..       ..

E---------------------------------------|
B---------------------------------------|
G---------------------------------------|
D--2---222222---2---22---2---22---2---7-|
A--2---222222---2---22---2---22---2---7-|
E--0---000000---0---00---0---00---0---5-|
       ......       ..       ..


Zwischenspiel:

E--------------5---------------------5---------------------5---------|
B--5-7-5-7-5-7---7-5-7---5-7-5-7-5-7---7-5-7---5-7-5-7-5-7---7-5-7---|
G--------------------------------------------------------------------|
D--------------------------------------------------------------------|
A--------------------------------------------------------------------|
E--------------------------------------------------------------------|

E--------------------------|
B--3-3333-5-3/-6-6666-5-3--|
G--------------------------| 2x
D--------------------------|
A--------------------------|
E--------------------------|

Verse:

E-----------------------------------------------------------------------|
B-----------------------------------------------------------------------|
G-----------------------------------------------------------------------|
D--9---999999---9---99---9---99---9/---5---555555---5---55---5---55---5-|
A--9---999999---9---99---9---99---9/---5---555555---5---55---5---55---5-|
E--7---777777---7---77---7---77---7/---3---333333---3---33---3---33---3-|
       ......       ..       ..            ......       ..       ..

E----------------------------------------------------------------------|
B----------------------------------------------------------------------|
G----------------------------------------------------------------------|
D--2---222222---2---22---2---22---2---7---777777---7---77---7---77---7-|
A--2---222222---2---22---2---22---2---7---777777---7---77---7---77---7-|
E--0---000000---0---00---0---00---0---5---555555---5---55---5---55---5-|
       ......       ..       ..           ......       ..       ..

E-----------------------------------------------------------------------|
B-----------------------------------------------------------------------|
G-----------------------------------------------------------------------|
D--9---999999---9---99---9---99---9/---5---555555---5---55---5---55---5-|
A--9---999999---9---99---9---99---9/---5---555555---5---55---5---55---5-|
E--7---777777---7---77---7---77---7/---3---333333---3---33---3---33---3-|
       ......       ..       ..            ......       ..       ..

E-------------------------------------------------|
B-------------------------------------------------|
G-------------------------------------------------|
D--2---222222---2---22---2---22---2---7777-777777-|
A--2---222222---2---22---2---22---2---7777-555555-|
E--0---000000---0---00---0---00---0---5555-555555-|
       ......       ..       ..       ....


Refrain:

E--------------------------------------------------|
B--------------------------------------------------|
G-------------------------77777777-----------------|
D-99999999----55555555----77777777----77777777-----|
A-99999999----55555555----55555555----77777777-----|
E-77777777----33333333----------------55555555-----|


Legend:

. = Palm Mute
/ = Silde
            
Submit corrections

↑ Back to top | Tablatures and chords for acoustic guitar and electric guitar, ukulele, drums are parodies/interpretations of the original songs. You may use it for private study, scholarship, research or language learning purposes only