Home » F » Frederic Chopin »

Frederic Chopin - Prelude N 20 Op 28 In Cm Tabs

Artists:  A B C D E F G H I J K L M N O P Q R S T U V W X Y Z # 

Prelude N 20 Op 28 In Cm Tabs

(ver. 1) Click to play this song!
Frederic Chopin
st.: strum
rit.: ritardando

Time signature: 4/4
Lento all along.
Notes are always the same: quarter quarter eight. sixteenth quarter

PART A
LENTO
Fortissimo
|-4---5---4----------|-0---2---0----------|---------4---2------|-----4---8---6--4---|
|-5---7---4---7--5---|-2---3---2---3--2---|-4---6---2---2--6---|-4---4---8---8--4---|
|-6---6---5---5--6---|-2---2---1---4--2---|-5---4---2---2--6---|-6---5---6---6--5---|
|-----4-------4--6---|-----0-------2--2---|-4---6----------6---|-5---6---8------6---|
|-4--------------4---|-0--------------0---|-----4----------4---|-6---6---6---6--6---|
|---------4---4------|---------0---0------|-4-------2---2------|-----4----------4---|
                                                           *1       st.  st.   st.
                                            crescendo            crescendo
PART B
Piano
|-12---12---11------11--|-9---11---8---6------|-9--------------------|-------------------|
|-9----10---10------9---|-9---8----9------9---|-----10---9-----------|-5---7---5---4-----|
|------9--------11------|----------8---6--8---|-6---11---8---11--9---|-6---7---5------6--|
|-11---11---10------9---|-8---7----6------10--|-6---11-----------11--|-7---7---4------6--|
|-----------------------|-----------------9---|-7---9----11------11--|-----5----------7--|
|-9---------------------|---------------------|----------8-------9---|-5-------4------9--|

PART C
Pianissimo
|--------------------|-------------------|--------------------|--------------------|-9---|
|-5---5---4------4---|-2---4---1---------|--------------------|-2---3---1-----2----|-----|
|---------2------1---|-1---0---1--3--1---|-6---2---1----------|-2---2---1----------|-9---|
|-6---7-------4------|---------1-----1---|-6---4---1---4--2---|-2---4---2--1--2----|-----|
|-4---4---3------2---|-1---0------4--3---|-4---4---3------4---|-0---5---------4----|-11--|
|--------------------|---------4-----2---|-0---2--------------|---------4----------|-9---|
                                           *2                                      fermata
                                                    rit.
Original Tárrega voicings
|--1-----------------|
|--2-----2-----------|
|--1-----1-----------|
|--------------------|
|--4-----4-----------|
|--------0-----------|
   *1   *2            
Submit corrections

↑ Back to top | Tablatures and chords for acoustic guitar and electric guitar, ukulele, drums are parodies/interpretations of the original songs. You may use it for private study, scholarship, research or language learning purposes only