Home » F » Freddie Mercury »

Freddie Mercury - Love Kills Bass

Artists:  A B C D E F G H I J K L M N O P Q R S T U V W X Y Z # 

Love Kills Bass

(ver. 1) Click to play this song!
Freddie Mercury
Intro:                         (Play This x3)
G|-------|-----------------------------------
D|-DRUM--|-----------------------------------
A|-START-|-----------------------------------
E|-------|-3-3-3-3-3-3-3-3---3-3-3-3-3-3-3-3-

                        Verse:
G|------------------|  |---------------------------------------
D|------------------|  |---------------------------------------
A|------------------|  |-------------------------------3-3-3-3-
E|-3-3-3-3-3-3-3-3--|  |-3-3-3-3-3-3-3-3---3-3-3-3-3-3---------

G|-----------------------------------
D|-----------------------------------
A|---------------------------3-3-3-2-
E|-3-3-3-3-3-3-3-3---3-3-3-3---------

Chorus 1:
G|-------------------------------------------------------------------
D|-------------------------------------------------------------------
A|-1-1-1-1---------------------------8-8-8-8-8-8-8-7-6-6-6-6-6-6-6-6-
E|---------3-3-3-3-3-3-3-3---8-8-8-8---------------------------------

G|-----------------------------------
D|-----------------------------------
A|-----------------------------------
E|-4-4-4-4-4-4-4-4---1-1-1-1-1-1-1-2-

Repeat Verse:

Repeat Chorus 1:

Bridge:                 (Play This x5)
G|-----------------------------------
D|-----------------------------------
A|-----------------------------------
E|-3-3-3-3-3-3-3-3---3-3-3-3-3-3-3-3-

Chorus 2:
G|-------------------------------------------------------------------
D|-------------------------------------------------------------------
A|-1-1-1-1---------------------------8-8-8-8-8-8-8-7-6-6-6-6-6-6-6-6-
E|---------3-3-3-3-3-3-3-3---8-8-8-8---------------------------------

G|---------------------------------------------------------------------
D|-5-5-5-5-5-5-5-5-------------------------------------5-5-5-5-5-5-5-4-
A|-----------------3-3-3-3---0-0-0-0-0-0-0-0---5-5-5-5-----------------
E|---------------------------------------------------------------------

G|-----------------------------------------
D|-3-3-3-3-3-3-3-3-----------------1-1-1-1-
A|-----------------1-1-1-1-1-1-1-1---------
E|-----------------------------------------

Outro:
G|-----------------------------------------------------------------
D|-----------------3-3-3-3-----------------------------------------
A|-3-3-3-3-3-3-3-3---------1-1-1-1-1-1-1-1-----------------6-6-6-5-
E|-----------------------------------------4-4-4-4-4-4-4-4---------

(Repeat This bit to Fade/End):
G|--------------------------------------------------------------------
D|--------------------------8-8-8-8-8-8-8-8---6-6-6-6-6-6-6-6---------
A|-----------------8-8-8-8------------------------------------6-6-6-5-
E|-8-8-8-8-8-8-8-8----------------------------------------------------


            
Submit corrections

↑ Back to top | Tablatures and chords for acoustic guitar and electric guitar, ukulele, drums are parodies/interpretations of the original songs. You may use it for private study, scholarship, research or language learning purposes only