Home » F » Freddie Mercury »

Freddie Mercury - Living On My Own Bass

Artists:  A B C D E F G H I J K L M N O P Q R S T U V W X Y Z # 

Living On My Own Bass

(ver. 1) Click to play this song!
Freddie Mercury
----------------------------------------------------------------------------
-----------------------------------------------------------------------------


NB: This is the 1993 "techno" remix,  not the version that appeared on Mr Bad Guy

Tuning:EADG

bass comes in at 00.28

G|--------------------------------------------------------------------------|
D|--------------------------------------------------------------------------|
A|-----------------------------------------33-3-33-3----------55-5-55-5--00-|
E|-55-5-55-5-55-5-55-5-55-5-55-5-55-5-55-5-----------33-3-33-3--------------|

G|-----------------------------------------------------------------------------|
D|----------------------------22-2-22-2-22-2-22-2------------------------------|
A|-0-00-0-33-3-33-3-22-2-22-2-----------------------22-2-22-2-22-2-22-2--------|
E|-----------------------------------------------------------------------------|

G|-----------------------------------------------------------------------------|
D|-----------------------------------------------------------------------------|
A|-----------------------------------------------------------55-5-55-5-55-5----|
E|-55-5-55-5-55-5-55-5-55-5-55-5-55-5--33-3-33-3-33-3-33-3---------------------|

G|-----------------------------------------------------------------------------|
D|-----------------------------------------------------------------------------|
A|-55-5------------------------------------------------------------------------|
E|------55-5-55-5-55-5-55-5-55-5-55-5-55-5-55-5--------------------------------|

CHORUS
G|------------------------------------------------------------------------------|
D|-------------------------------------------------------------22-2-22-2-22-----|
A|-33-3-33-3-----------55-5-55-5-00-0-00-0-33-3-33-3-22-2-22-2------------------|
E|-----------33-3-33-3----------------------------------------------------------|

G|-----------------------------------------------------------------------------|
D|-2-22-2----------------------------------------------------------------------|
A|--------22-2-22-2-22-2-22-2--------------------------------------------------|
E|-----------------------------------------------------------------------------|

repeat above and chorus to end
            
Submit corrections

↑ Back to top | Tablatures and chords for acoustic guitar and electric guitar, ukulele, drums are parodies/interpretations of the original songs. You may use it for private study, scholarship, research or language learning purposes only