Home » F » Freddie Mercury »

Freddie Mercury - I Was Born To Love You Bass

Artists:  A B C D E F G H I J K L M N O P Q R S T U V W X Y Z # 

I Was Born To Love You Bass

(ver. 1) Click to play this song!
Freddie Mercury
Intro:
G|----------------
D|---NO BASS ON---
A|-----INTRO------
E|----------------

Chorus 1:
G|-----------5-5-5-5---6-6-6-6-6-6-6-6------------------8-8--6-6--5-5------
D|--6-6-6-6----------------------------8-8-8-8-8-8-8-8-----------------8-8-
A|----------3-3-3-3---4-4-4-4-4-4-4-4------------------6-6--4-4--3-3-------
E|-4-4-4-4----------------------------6-6-6-6-6-6-6-6-----------------6-6--

G|-----------5-5-5-5---6-6-6-6-6-6-6-6----------8-8-8-8-----------------
D|--6-6-6-6----------------------------8-8-8-8----------6-6-6-6-6-6-6-6-
A|----------3-3-3-3---4-4-4-4-4-4-4-4----------6-6-6-6------------------
E|-4-4-4-4----------------------------6-6-6-6----------4-4-4-4-4-4-4-4--

Verse:
G|-------------------5-5-5-5-5-5-5-5---6-6-6-6-6-6-6-6-----------------
D|--6-6-6-6-6-6-6-6------------------------------------8-8-8-8-8-8-8-8-
A|------------------3-3-3-3-3-3-3-3---4-4-4-4-4-4-4-4------------------
E|-4-4-4-4-4-4-4-4------------------------------------6-6-6-6-6-6-6-6--

G|--8-8-8-8-8-8-8-8----------------------------10-10-10-10-10-10-10-10-
D|--------------------10-10-10-10-10-10-10-10--------------------------
A|-6-6-6-6-6-6-6-6----------------------------8--8--8--8--8--8--8--8---
E|-------------------8--8--8--8--8--8--8--8----------------------------

G|--------------------8-8-8-8-8-8-8-8-
D|--8-8-8-8-8-8-8-8-------------------
A|-------------------6-6-6-6-6-6-6-6--
E|-6-6-6-6-6-6-6-6--------------------

Repeat Chorus 1:

Bridge:
             I wanna love you...
G|------------6-6-6-6-6-6-6-6-------------------6-6-6-6--------------------
D|--6-6-6-6--------------------6-6-6-6-6-6-6-6------------8-8-8-8--6-6-6-6-
A|-----------4-4-4-4-4-4-4-4-------------------4-4-4-4---------------------
E|-4-4-4-4--------------------4-4-4-4-4-4-4-4------------6-6-6-6--4-4-4-4--

G|------------------------------3-3-3-3-3-3-3-3---8-8-8-8-8-8-8-8-
D|--5-5-5-5---3-3-3-3-3-3-3-3-------------------------------------
A|-----------------------------1-1-1-1-1-1-1-1---6-6-6-6-6-6-6-6--
E|-3-3-3-3---1-1-1-1-1-1-1-1--------------------------------------

Chorus 2:
G|-----------5-5-5-5---6-6-6-6-6-6-6-6----------8-8-8-8-----------------
D|--6-6-6-6----------------------------8-8-8-8----------6-6-6-6-6-6-6-6-
A|----------3-3-3-3---4-4-4-4-4-4-4-4----------6-6-6-6------------------
E|-4-4-4-4----------------------------6-6-6-6----------4-4-4-4-4-4-4-4--

Instrumental Interlude:  (Play Bass Chords Throughout This Instrumental)
G|-----------------------------------------------------------------------
D|-6-6-6-6-6-6-6-6---6-6-6-6-6-6-6-6---6-6-6-6-6-6-6-6---6-6-6-6-6-6-6-6-
A|-----------------------------------------------------------------------
E|-4-4-4-4-4-4-4-4---4-4-4-4-4-4-4-4---4-4-4-4-4-4-4-4---4-4-4-4-4-4-4-4-

G|------------------------------------6-6-6-6-6-6-6-6---8-8-8-8-8-8-8-8-
D|-8-8-8-8-8-8-8-8---8-8-8-8-8-8-8-8------------------------------------
A|------------------------------------4-4-4-4-4-4-4-4---6-6-6-6-6-6-6-6-
E|-6-6-6-6-6-6-6-6---6-6-6-6-6-6-6-6------------------------------------

G|-----------------------------------------------------------------------
D|-6-6-6-6-6-6-6-6---6-6-6-6-6-6-6-6---8-8-8-8-8-8-8-8---8-8-8-8-8-8-8-8-
A|-----------------------------------------------------------------------
E|-4-4-4-4-4-4-4-4---4-4-4-4-4-4-4-4---6-6-6-6-6-6-6-6---6-6-6-6-6-6-6-6-

G|-6-6-6-6-6-6-6-6---6-6-6-6-6-6-6-6-
D|-----------------------------------
A|-4-4-4-4-4-4-4-4---6-6-6-6-6-6-6-6-
E|-----------------------------------

Repeat Chorus 1:

Outro:             (Repeat Until Track Fades Out)
G|----------------------------------
D|--6-6-6-6-6-6-6-6-6-6-6-6-6-6-6-6-
A|----------------------------------
E|-4-4-4-4-4-4-4-4-4-4-4-4-4-4-4-4--


            
Submit corrections

↑ Back to top | Tablatures and chords for acoustic guitar and electric guitar, ukulele, drums are parodies/interpretations of the original songs. You may use it for private study, scholarship, research or language learning purposes only