Home » F » Frank Turner »

Frank Turner - Four Simple Words Acoustic Live Chords

Artists:  A B C D E F G H I J K L M N O P Q R S T U V W X Y Z # 

Four Simple Words Acoustic Live Chords

(ver. 1) Click to play this song!
Frank Turner
 Rating:
4.3/5 (26 votes)
                [Intro]
 
    C/G E   Am  Dm7
e|--0---0---0---1---|
B|--1---0---1---1---|
G|--0---1---2---2---|
D|--2---2---2---0---|
A|--3---2---0---X---|
E|--3---0---X---X---|
 
    C   E7  E   Am  C/G F
e|--0---0---0---0---0---X--|
B|--1---0---0---1---1---1--|
G|--0---1---1---2---0---2--|
D|--2---0---2---2---2---3--|
A|--3---2---2---0---X---3--|
E|--X---0---0---X---3---1--|
 
    Dm  G   G7  C/G C/G F   Fm
e|--1---3---1---0---0---1---1---|
B|--3---0---0---1---1---1---1---|
B|--3---0---0---1---1---2---1---|
D|--0---0---0---2---2---3---3---|
D|--0---X---X---2---2---3---3---|
E|--X---3---3---3---3---1---1---|
 
[Chorus] (Quiet)
 
       C                       E                       Am                      Dm
e|-----0-----0-----0-----0-----0-----0-----0-----0-----0-----0-----0-----0-----1-----1-----1-----1--|
B|-----1-----1-----1-----1-----0-----0-----0-----0-----1-----1-----1-----1-----3-----3-----3-----3--|
G|-----0-----0-----0-----0-----1-----1-----1-----1-----2-----2-----2-----0-----2-----2-----2-----2--|
D|-----2-----2-----2-----2-----2-----2-----2-----2-----2-----2-----2-----2--0--0-----0--0--0-----0--|
A|--3--3-----X--3--3-----X-----2--2--2-----2--0--2--0--0-----0--0--0-----X-----X--0--X-----X--0--X--|
E|-----X--3--3-----X--3--3--0--0-----0--0--0-----0-----X--0--X-----X--3--3-----X-----X-----X-----X--|
 
       C                       E                       Am                      Dm               C/G
e|-----0-----0-----0-----0-----0-----0-----0-----0-----0-----0-----0-----0-----1-----1-----1-----1--|
B|-----1-----1-----1-----1-----0-----0-----0-----0-----1-----1-----1-----1-----3-----3-----3-----3--|
G|-----0-----0-----0-----0-----1-----1-----1-----1-----2-----2-----2-----0-----2-----2-----2-----2--|
D|-----2-----2-----2-----2-----2-----2-----2-----2-----2-----2-----2-----2--0--0-----0--0--0-----0--|
A|--3--3-----X--3--3-----X-----2--2--2-----2--0--2--0--0-----0--0--0-----X-----X--0--X-----X--0--X--|
E|-----X--3--3-----X--3--3--0--0-----0--0--0-----0-----X--0--X-----X--3--3-----X-----X-----X-----X--|
 
 
[Verse 1]
 
    Am  Dm  C/G G
e|--0---1---0---3--|
B|--1---3---1---3--|
G|--2---2---0---0--|
D|--2---0---2---0--|
A|--0---X---3---2--|
E|--X---X---3---3--|
[x2]
 
 
[Chorus] (Loud)
 
    C/G    E   E7  Am  Dm7
e|--0------0---0---0---X--|
B|--1------0---0---1---6--|
G|--0------1---1---2---5--|
D|--2p0h2--2---0---2---0--|
A|--3------2---2---0---X--|
E|--3------0---0---X---X--|
 
    C/G E   E7  Am  C/G Dm7 C/G
e|--0---0---0---0---0---X---0--|
B|--1---0---0---1---1---6---1--|
G|--0---1---1---2---0---5---0--|
D|--2---2---0---2---2---0---2--|
A|--3---2---2---0---X---X---3--|
E|--3---0---0---X---3---X---3--|
 
 
[Verse 2]
 
    Am  Dm  C/G G
e|--0---1---0---3--|
B|--1---3---1---3--|
G|--2---2---0---0--|
D|--2---0---2---0--|
A|--0---X---3---2--|
E|--X---X---3---3--|
[x2]
 
 
[Chorus] (Loud)
 
    C/G    E   E7  Am  Dm7
e|--0------0---0---0---X--|
B|--1------0---0---1---6--|
G|--0------1---1---2---5--|
D|--2p0h2--2---0---2---0--|
A|--3------2---2---0---X--|
E|--3------0---0---X---X--|
 
    C/G E   E7  Am  C/G Dm7 C/G
e|--0---0---0---0---0---X---0--|
B|--1---0---0---1---1---6---1--|
G|--0---1---1---2---0---5---0--|
D|--2---2---0---2---2---0---2--|
A|--3---2---2---0---X---X---3--|
E|--3---0---0---X---3---X---3--|
 
 
[Instrumental]
 
    Am
e|--0---0---0----0---0---0--|
B|--1---X---X----X---X---X--|
G|--2---7---10---9---8---7--|
D|--2---7---10---9---8---7--|
A|--0---0---0----0---0---0--|
E|--X---X---X----X---X---X--|
 
 
[Bridge]
 
    Am
e|--0--|
B|--1--|
G|--2--|
D|--2--|
A|--0--|
E|--X--|
[PM]
 
    Dm  G7 C/G  F
e|--1---1---0---X--|
B|--3---3---1---1--|
G|--2---0---0---2--|
D|--0---0---2---3--|
A|--X---X---3---3--|
E|--X---3---3---1--|
[x2]
 
    Dm  G   C/G F
e|--1---3---0---X---1--|
B|--3---3---1---1---1--|
G|--2---0---0---2---1--|
D|--0---0---2---3---0--|
A|--X---2---3---3---X--|
E|--X---3---3---1---X--|
 
 
[Chorus] (Quiet)
 
       C                       E                       Am                      Dm
e|-----0-----0-----0-----0-----0-----0-----0-----0-----0-----0-----0-----0-----1-----1-----1-----1--|
B|-----1-----1-----1-----1-----0-----0-----0-----0-----1-----1-----1-----1-----3-----3-----3-----3--|
G|-----0-----0-----0-----0-----1-h1--1-----1-----1-----2-----2-----2-----0-----2-----2-----2-----2--|
D|-----2-----2-----2-----2-----2-----2-----2-----2-----2-----2-----2-----2--0--0-----0--0--0-----0--|
A|--3--3-----X--3--3-----X-----2-----2-----2--0--2--0--0-----0--0--0-----X-----X--0--X-----X--0--X--|
E|-----X--3--3-----X--3--3--0--0-----0--0--0-----0-----X--0--X-----X--3--3-----X-----X-----X-----X--|
 
       C                       E                       Am   Dm
e|-----0-----0-----0-----0-----0-----0-----0-----0-----0-----1--|
B|-----1-----1-----1-----1-----0-----0-----0-----0-----1-----3--|
G|-----0-----0-----0-----0-----1-----1-----1-----1-----2-----2--|
D|-----2-----2-----2-----2-----2-----2-----2-----2-----2-----0--|
A|--3--3-----X--3--3-----X-----2--2--2-----2--0--2--0--0-----X--|
E|-----X--3--3-----X--3--3--0--0-----0--0--0-----0-----X-----X--|
 
 
[Chorus] (Loud)
 
    C/G E  Am  Dm7
e|--0---0---0---X--|
B|--1---0---1---6--|
G|--0---1---2---5--|
D|--2---2---2---0--|
A|--3---2---0---X--|
E|--3---0---X---X--|
 
    C/G E  Am   F  C/G
e|--0---0---0---X---0--|
B|--1---0---1---1---1--|
G|--0---1---2---2---0--|
D|--2---2---2---3---2--|
A|--3---2---0---3---3--|
E|--3---0---X---1---3--|
            
Submit corrections

↑ Back to top | Tablatures and chords for acoustic guitar and electric guitar, ukulele, drums are parodies/interpretations of the original songs. You may use it for private study, scholarship, research or language learning purposes only