» » »

Frank Ocean - Solo Tabs

Artists:  A B C D E F G H I J K L M N O P Q R S T U V W X Y Z # 

Solo Tabs

(ver. 1) Click to play this song!
Frank Ocean
 Rating:
4.3/5 (20 votes)

 Solo  lessons Tabs too difficult? Try these video lessons and learn fast
 
                  Eb      Bb      Cm7     Bb       Ab      Gm7     Fm7
          (1st)inv
   1   +   2   +   3   +   4   +    1   +   2   +   3   +   4   +
e|-----------------8-------------|----------3-------1--------------|-
B|-11-----11-------8-------6-----|--4-------3-------1--------------|-
G|-12-----10-------8-------7-----|--5-------3-------1--------------|-
D|-13-----12-------8-------8-----|--6-------3-------1--------------|-
A|-------------------------8-----|--6------------------------------|-
E|-11-----10-------8-------6-----|--4-------3-------1--------------|-

   Fm9             Fm9              Daug
   1   +   2   +   3   +   4   +    1   +   2   +   3   +
e|-------------------------------|--------------------------|
B|-1---------------1-------------|--------------------------|
G|-0---------------0-------------|--3-----------------------|
D|-1---------------1-------------|--4-----------------------|
A|-------------------------------|--5-----------------------|
E|-1---------------1-------------|--------------------------|



'We too loud in public...'

   1   +   2   +   3   +   4   +    1   +   2   +   3   +   4   +
e|---------8---------------------|--3---------------1--------------|-
B|-11--11--8-------6-------4-----|--3---------------1--------------|-
G|-12--10--8-------7-------5-----|--3---------------1--------------|-
D|-13--12--8-------8-------6-----|--3---------------1--------------|-
A|-----------------8-------6-----|---------------------------------|-
E|-11--10--8-------6-------4-----|--3---------------1--------------|-

   1   +   2   +   3   +   4   +    1   +   2   +   3   +   4   +
e|-------------------------------|---------------------------------|
B|-1-----------------------------|---------------------------------|
G|-0---------------3-------------|---------------------------------|
D|-1---------------4-------------|---------------------------------|
A|-----------------5-------------|---------------------------------|
E|-1-----------------------------|---------------------------------|

 

'Now stay away from highways...'

   1   +   2   +   3   +   4   +    1   +   2   +   3   +   4   + 
e|---------8---------------------|----------3----------------------|-
B|-11--11--8-------6-------4-----|----------3----------------------|-
G|-12--10--8-------7-------5-----|----------3----------------------|-
D|-13--12--8-------8-------6-----|----------3----------------------|-
A|-----------------8-------6-----|---------------------------------|-
E|-11--10--8-------6-------4-----|----------3----------------------|-

   1   +   2   +   3   +   4   +    1   +   2   +   3   +   4   + 
e|-1-----------------------------|---------------------------------|
B|-1---------------1-------------|---------------------------------|
G|-1---------------0-------------|--3------------------------------|
D|-1---------------1-------------|--4------------------------------|
A|-------------------------------|--5------------------------------|
E|-1---------------1-------------|---------------------------------|



'I got that act right...'

   1   +   2   +   3   +   4   +    1   +   2   +   3   +   4   +
e|---------8---------------------|------------------3--------------|-
B|-11--11--8-------6-------------|--4---------------3--------------|-
G|-12--10--8-------7-------------|--5---------------3--------------|-
D|-13--12--8-------8-------------|--6---------------3--------------|-
A|-----------------8-------------|--6------------------------------|-
E|-11--10--8-------6-------------|--4---------------3--------------|-

   1   +   2   +   3   +   4   +    1   +   2   +   3   +   4   + 
e|-1-----------------------------|---------------------------------|
B|-1---------------1-------------|---------------------------------|
G|-1---------------0-------------|--3------------------------------|
D|-1---------------1-------------|--4------------------------------|
A|-------------------------------|--5------------------------------|
E|-1---------------1-------------|---------------------------------|


=======================================================================
[Pre-Chorus]
=======================================================================

'Solo, solo, solo...'

   Eb      Ddim     C#b5    Cm7      Ab      Gm7      Fm7     Fm9 Daug

   1   2   3   4    1   2   3   4    1   2   3   4    1   2   3   4
e|---------------|----------8-----|----------3-----|--1---------------|
B|-11------9-----|--8-------8-----|--4-------3-----|--1-------1-------|
G|-12------10----|--10------8-----|--5-------3-----|--1-------0---3---|
D|-13------9-----|--9-------8-----|--6-------3-----|--1-------1---4---|
A|---------------|----------------|--6-------------|--------------5---|
E|-11------10----|--9-------8-----|--4-------3-----|--1-------1-------|


=======================================================================
[Chorus]
=======================================================================

'It's hell on earth...'

   1   +   2   +   3   +   4   +    1   +   2   +   3   +   4   +
e|-----------------8-------------|--3---------------1--------------|
B|-11------11------8---6---4-----|--3---------------1--------------|
G|-12------10------8---7---5-----|--3---------------1--------------|
D|-13------12------8---8---6-----|--3---------------1--------------|
A|---------------------8---6-----|---------------------------------|
E|-11------10------8---6---4-----|--3---------------1--------------|



'There's a bull...'

   1   +   2   +   3   +   4   +    1   +   2   +   3   +   4   + 
e|---------8---------------3-----|--1------------------------------|
B|-11--11--8-------6---4---3-----|--1---------------1--------------|
G|-12--10--8-------7---5---3-----|--1---------------0--------------|
D|-13--12--8-------8---6---3-----|--1---------------1--------------|
A|-----------------8---6---------|---------------------------------|
E|-11--10--8-------6---4---3-----|--1---------------1--------------| Play 3x


=======================================================================
[Pre-Chorus]
=======================================================================


=======================================================================
[Verse 2]
=======================================================================

'I'm sipping showers...'

   1   +   2   +   3   +   4   +    1   +   2   +   3   +   4   +
e|-----------------8-------------|----------3-------1--------------|-
B|-11------11------8-------6-----|--4-------3-------1--------------|-
G|-12------10------8-------7-----|--5-------3-------1--------------|-
D|-13------12------8-------8-----|--6-------3-------1--------------|-
A|-------------------------8-----|--6------------------------------|-
E|-11------10------8-------6-----|--4-------3-------1--------------|-

   1   +   2   +   3   +   4   +    1   +   2   +
e|-------------------------------|-----------------|
B|-1---------------1-------------|-----------------|
G|-0---------------0-------------|--3--------------|
D|-1---------------1-------------|--4--------------|
A|-------------------------------|--5--------------|
E|-1---------------1-------------|-----------------|



'White leaf on my boxers...'

   1   +   2   +   3   +   4   +    1   +   2   +   3   +   4   +
e|---------8---------------3-----|--1------------------------------|-
B|-11--11--8-------6---4---3-----|--1---------------1--------------|-
G|-12--10--8-------7---5---3-----|--1---------------0--------------|-
D|-13--12--8-------8---6---3-----|--1---------------1--------------|-
A|-----------------8---6---------|---------------------------------|-
E|-11--10--8-------6---4---3-----|--1---------------1--------------|-

   1   +   2   +   3   +   4   +    1   +   2   +   3   +   4   + 
e|-------------------------------|---------------------------------|
B|-1-----------------------------|--1------------------------------|
G|-0-----------------------------|--0---------------3--------------|
D|-1-----------------------------|--1---------------4--------------|
A|-------------------------------|------------------5--------------|
E|-1-----------------------------|--1------------------------------|



'Now your baby momma...'

   1   +   2   +   3   +   4   +    1   +   2   +   3   +   4   +
e|---------8---------------------|------------------3--------------|-
B|-11--11--8-------6-------------|--4---------------3--------------|-
G|-12--10--8-------7-------------|--5---------------3--------------|-
D|-13--12--8-------8-------------|--6---------------3--------------|-
A|-----------------8-------------|--6------------------------------|-
E|-11--10--8-------6-------------|--4---------------3--------------|-

   1   +   2   +   3   +   4   +    1   +   2   +
e|-1-----------------------------|-----------------|
B|-1---------------1-------------|-----------------|
G|-1---------------0-------------|--3--------------|
D|-1---------------1-------------|--4--------------|
A|-------------------------------|--5--------------|
E|-1---------------1-------------|-----------------|



'I wanted that act right...'

   1   +   2   +   3   +   4   +    1   +   2   +   3   +   4   +
e|---------8---------------------|------------------3--------------|-
B|-11--11--8-------6-------------|--4---------------3--------------|-
G|-12--10--8-------7-------------|--5---------------3--------------|-
D|-13--12--8-------8-------------|--6---------------3--------------|-
A|-----------------8-------------|--6------------------------------|-
E|-11--10--8-------6-------------|--4---------------3--------------|-

   1   +   2   +   3   +   4   +    1   +   2   +   3   +   4   + 
e|-1-----------------------------|---------------------------------|
B|-1---------------1-------------|---------------------------------|
G|-1---------------0-------------|--3------------------------------|
D|-1---------------1-------------|--4------------------------------|
A|-------------------------------|--5------------------------------|
E|-1---------------1-------------|---------------------------------|


=======================================================================
[Pre-Chorus]
=======================================================================

=======================================================================
[Chorus]
=======================================================================

=======================================================================
[Pre-Chorus]
=======================================================================

   End On:
e|----------------||
B|-11-------------||
G|-12-------------||
D|-13-------------||
A|----------------||
E|-11-------------||            
Submit corrections


        Solo  lessons Hard to play? Try these video lessons and learn fast Solo  lessons
        
↑ Back to top | Tablatures and chords for acoustic guitar and electric guitar, ukulele, drums are parodies/interpretations of the original songs. You may use it for private study, scholarship, research or language learning purposes only