» » »

Frank Ocean - Pyramids Tabs

Artists:  A B C D E F G H I J K L M N O P Q R S T U V W X Y Z # 

Pyramids Tabs

(ver. 1) Click to play this song!
Frank Ocean
 Rating:
4.2/5 (30 votes)

 Pyramids lessons Tabs too difficult? Try these video lessons and learn fast
 
                Solo at '3:15'.

[Solo]

e|---8-------------------------------------------------------------------------------------------|
B|---8-------------------------------------------------------------------------------------------|
G|-------10b12r10p8------------------------------------------------8h10-8h10b12---8--------8-----|
D|--------------------10~-----------------------------------8h10----------------------10---------|
A|-------------------------10-9-8------------------8h9h10----------------------------------------|
E|----------------------------------10------8h11-------------------------------------------------|

e|-------------------------------------------------11--------------------------------------------|
B|----------------------------------11----------------------------------------11--------11~------|
G|---10b12------8---10---8---10p8--------12\10p8--------12\10p8---8---10/12--------12------------|
D|-----------------------------------------------------------------------------------------------|
A|-----------------------------------------------------------------------------------------------|
E|-----------------------------------------------------------------------------------------------|

e|-------------------------------------------------------------------16--18--16------------------|
B|--------13--------13~-----16---16b18r16b18r16b18---16~-----18b20----------------18b20---18~----|
G|---12--------12--------------------------------------------------------------------------------|
D|-----------------------------------------------------------------------------------------------|
A|-----------------------------------------------------------------------------------------------|
E|-----------------------------------------------------------------------------------------------|

e|------------------------------------------------------20~~-18~~-15~~-13~~----------8-----------|
B|--16--------18b20---16---18~-----18b20---18~--18b20---x----x----x----x-----11b13-------11------|
G|-------17---------------------------------------------x----x----x----x----------------------10-|
D|-----------------------------------------------------------------------------------------------|
A|-----------------------------------------------------------------------------------------------|
E|-----------------------------------------------------------------------------------------------|

e|---------------------------------------------------------------------------------------11------|
B|---8-------------------------------------------------------------------------------------------|
G|-------8---10/12\10p8---10/12---12\10p8-------------------------------------------/12----------|
D|--------------------------------x--------------------------------------------------------------|
A|--------------------------------x---------8/10---10\8p6--------6---8---8/10---6~---------------|
E|-------------------------------------------------x--------8------------------------------------|

e|--------10------8~~---------11-------10-----8~~------------------------8---8-------------------|
B|-----------------------------------------------------------8---11b13-----------11p8------------|
G|--/10-------8----------/12------/10------8---------10b12------------------------------11p10p8--|
D|-----------------------------------------------------------------------------------------------|
A|-----------------------------------------------------------------------------------------------|
E|-----------------------------------------------------------------------------------------------|

e|-----------------------------------------------------------------------------------------------|
B|-----------8-----------------------------------------------------------------------------------|
G|---10b12---8h10~--8---------------8------------------------------------------------------------|
D|---x-------x----------10p8--------8h10p8-------------------------------------------------------|
A|---x-------x-----------------10------------8b9--------8b9--------------8b9--------8b9----------|
E|-------------------------------------------------11---------11---------------11---------11-----|

e|-----------------------------------11---------11---------11---------11---------11--------11----|
B|-----------------------------------------------------------------------------------------------|
G|----------8b9-----------8---10/12------10/12------10/12------10/12------10/12-----10/12--------|
D|---8h10---------10~----------------------------------------------------------------------------|
A|-----------------------------------------------------------------------------------------------|
E|-----------------------------------------------------------------------------------------------|

e|----------13------13---------15------15------15------15------15------15~~----------------------|
B|-----------------------------------------------------------------------------------------------|
G|---12/13------13------13/15------15------15------15------15------15----------------------------|
D|-----------------------------------------------------------------------------------------------|
A|-----------------------------------------------------------------------------------------------|
E|-----------------------------------------------------------------------------------------------|            
Submit corrections


        Pyramids lessons Hard to play? Try these video lessons and learn fast Pyramids lessons
        
↑ Back to top | Tablatures and chords for acoustic guitar and electric guitar, ukulele, drums are parodies/interpretations of the original songs. You may use it for private study, scholarship, research or language learning purposes only