» » »

Frank Ocean - Lost Tabs

Artists:  A B C D E F G H I J K L M N O P Q R S T U V W X Y Z # 

Lost Tabs

(ver. 1) Click to play this song!
Frank Ocean
 Rating:
2.9/5 (29 votes)

 Lost lessons Tabs too difficult? Try these video lessons and learn fast
 
                Intro piano (sounds best on 1st string):

e|-10-10-13-15----10-13-15-17-15-13-10-10-13-13/15----10-13-15-17------------|
B|---------------------------------------------------------------------------|
G|---------------------------------------------------------------------------|
D|---------------------------------------------------------------------------|
A|---------------------------------------------------------------------------|
E|---------------------------------------------------------------------------|

Verse:
e|-------10------------5--------------10------------5-----------5-x-x-5------|
B|-------11------------6--------------11------------6-----------6-x-x-6------|
G|-------12----(x2)----7---(x2)-------12----(x2)----7-----------7-x-x-7------|
D|---------------------------------------------------------------------------|
A|-10-10----10---------------------------------------------------------------|
E|-----------------6-6---6-------11-11---11------6-6--6-----6-6--------------|

string instruments during  second half of chorus:

e|-13~~p10--13~~p10----------------------------------------------------------|
B|------------------13p11----(x3)----13~~15----13~~15-13-15-13---------------|
G|-----------------------12-----------------12-----------------15-12---------|
D|---------------------------------------------------------------------------|
A|---------------------------------------------------------------------------|
E|---------------------------------------------------------------------------|            
Submit corrections


        Lost lessons Hard to play? Try these video lessons and learn fast Lost lessons
        
↑ Back to top | Tablatures and chords for acoustic guitar and electric guitar, ukulele, drums are parodies/interpretations of the original songs. You may use it for private study, scholarship, research or language learning purposes only