» » »

Frank Ocean - Higgs Tabs

Artists:  A B C D E F G H I J K L M N O P Q R S T U V W X Y Z # 

Higgs Tabs

(ver. 1) Click to play this song!
Frank Ocean
 Rating:
4.3/5 (15 votes)

 Higgs lessons Tabs too difficult? Try these video lessons and learn fast
 
                [Intro - 0:00]

e|---------------------------------------------------------------------------|
B|----5---------4---------4---------2---------2------------------------------|
G|----6-------------------4-------------------2---------4---------3----------|   X2
D|--------------6-------------------4-------------------2---------4----------|
A|--4---------3---------2---------1---------0--------------------------------|
E|----------------------------------------------------4---------2------------|



[Bridge - 0:32]

  (Of each other's forms...)                                        ^    ^
e|-----------------------------------------------------------------------4---|
B|----5---------4---------4---------2---------2---------4-----------5--------|
G|----6-------------------4-------------------2---------------------6--------|
D|--------------6-------------------4-------------------6--------------------|
A|--4---------3---------2---------1---------0---------3---------4------------|
E|---------------------------------------------------------------------------|



[Solo - 0:50]

  (By versions of mothers...)
e|--------------------------------------------------------------------------------------|
B|--------------------------------------------------------------------------------------|
G|-------9--------11/13\11-------------11/13\11\8-9-9p8---------------------------------|
D|--9h11---------------------13-------------------------11-------------9----9----11-11--|
A|----------------------------------------------------------------9h11---11-------------|
E|--------------------------------------------------------------------------------------|

e|---------------------------------------------------------------------12---12-12-9/11--|
B|--------------------------------------------------------11----/14---------------------|
G|-------9----9----11b12r11p9---11b12r11-9---8------11/13----13-------------------------|
D|--9h11---11---11----------------------------------------------------------------------|
A|--------------------------------------------------------------------------------------|
E|--------------------------------------------------------------------------------------|



[Verse - 1:06]

  (What if we decide...)
e|---------------------------------------------------------------------------|
B|----5---------4---------4---------2---------2------------------------------|
G|----6-------------------4-------------------2---------4---------3----------|
D|--------------6-------------------4-------------------2---------4----------|
A|--4---------3---------2---------1---------0-----------------------------4--|
E|----------------------------------------------------4---------2------------|

[1:23]

  (Only difference is...)
e|---------------------------2----------------------------------------------------|
B|----5---------4---------4-------------2---------2---------4-------3----------1--|
G|----6-------------------4-----------------------2-------------------3-----------|
D|--------------6-----------------------4-------------------6------------------3--|
A|-/4---------3---------2---------2-0h1---------0---------3---------1--------0----|
E|--------------------------------------------------------------------------------|

[1:40]

  (I'll be back before...)
e|---------------------------------------------------------------------------|
B|----5-------4-4---------4---------2---------2------------------------------|
G|----6-------------------4-------------------2---------4---------3----------|
D|------------6---------------------4-------------------2---------4----------|
A|--4---------3---------2---------1---------0--------------------------------|
E|----------------------------------------------------4---------2------------|

[1:55]

  (They don't compare...)
e|------------------------------------------------------------------------4--|
B|----5---------4---------4---------2-------2-2-------4-4--------------------|
G|----6-------------------4-----------------2-2-------------------3----------|
D|--------------6-------------------4-----------------6-6---------4----------|
A|--4---------3---------2---------1---------0---------3----------------------|
E|--------------------------------------------------------------2------------|

[2:12]

  (What you give...)
e|---------------------------------------------------------------------------|
B|----5-------4-4---------4---------2---------2---------4--------4--------2--|
G|----6-------------------4-------------------2------------------4-----------|
D|------------6-6-------------------4-------------------6-----------------4--|
A|--4---------3---------2---------1---------0---------3--------2--------1----|
E|---------------------------------------------------------------------------|

[2:30]

e|------------------------------------------------------------------------4--|
B|----5---------4---------4---------2---------2-----------------------2------|
G|----6-------------------4-------------------2---------4---------3----------|
D|--------------6-------------------4-------------------2-------4-4----------|
A|--4---------3---------2---------1---------0--------------------------------|
E|----------------------------------------------------4---------2------------|


[Outro - 2:46]

  (If you never...)
e|---------------------------------------------------------------------------|
B|--------------4---------4---------2---------2------------------------------|
G|----1-------------------4-------------------2---------4---------3----------|
D|----2---------6-------------------4-------------------2---------4----------|
A|------------3---------2---------1---------0--------------------------------|
E|--0-------------------------------------------------4---------2------------|

[3:03]

e|---------------------------------------------------------------------------|
B|--------------4---------4---------2---------2-------------------------2----|
G|----1-------------------4-------------------2---------4---------3----------|
D|----2---------6-------------------4-------------------2---------4----------|
A|------------3---------2---------1---------0--------------------------------|
E|--0-------------------------------------------------4---------2------------|            
Submit corrections


        Higgs lessons Hard to play? Try these video lessons and learn fast Higgs lessons
        
↑ Back to top | Tablatures and chords for acoustic guitar and electric guitar, ukulele, drums are parodies/interpretations of the original songs. You may use it for private study, scholarship, research or language learning purposes only