Home » F » Francesco De Gregori »

Francesco De Gregori - Pezzi Di Vetro Tabs

Artists:  A B C D E F G H I J K L M N O P Q R S T U V W X Y Z # 

Pezzi Di Vetro Tabs

(ver. 1) Click to play this song!
Francesco De Gregori
[Intro]
 
e|------0----------0----|------0----------0---|
B|------0----------0----|------0----------0---|
G|----0---0------0---0--|----0---0------0---0-|  2x
D|----------------------|---------------------|
A|------------2---------|------------2--------|
E|--0-------------------|--0------------------|
 
 
[Verse 1]
   L'uomo che cammina       sui pezzi di vetro     dicono ha     due anime e un sesso,
  Em                          A                   F#m           Bm
e|----0-----------0----------|------0-------0----|----2-----2--|----2-----------2-------|
B|----0-----------0----------|------2-------2----|----2-----2--|----3-----------3-------|
G|---0-0---------0-0---------|----2---2----2--2--|---2-2---2-2-|---4--4-------4---4-----|
D|---------------------------|-----------2-------|-------------|------------4-----------|
A|--------------2------------|--0----------------|--------4----|-2----------------------|
E|-0-------------------------|-------------------|-2-----------|------------------------|
 
    di ramo duro il     cuore                   E una luna e dei fuochi alle spalle, mentre
   F#m               Em              A              D
e|-----2-------2----|-----0-----0---|-----0-----0--|-----2-------2---------2------2----------|
B|-----2-------2----|-----0-----0---|-----2-----2--|-----3-------3---------3------3----------|
G|----2-2-----2-2---|----0-0---0-0--|----2-2---2-2-|----2-2-----2-2-------2-2----2-2---------|
D|------------------|---------------|---------2----|--0-------------------------0------------|
A|---------4--------|--------2------|--0-----------|-----------4---------3-------------------|
E|---2--------------|--0------------|--------------|-----------------------------------------|
 
   balla   e       balla          Sotto l'angolo retto di una   stella
  G               Em             A                            D
e|-----2-----2---|----0-----0---|---0------0------0------0---|-----2-----2-----2----2----|
B|-----2-----2---|----0-----0---|---2------2------2------2---|-----3-----3-----3----3----|
G|----0-0---0-0--|---0-0---0-0--|--2-2----2-2----2-2----2-2--|----2-2---2-2---2-2--2-2---|
D|---------------|--------------|-------2--------------2-----|---0-----------0-----------|
A|---------------|-------2------|-0-------------0------------|---------0----------0------|
E|--3------2-----|--0-----------|----------------------------|---------------------------|
 
 
[Verse 2]
 Niente a che vedere col circo        Né acrobata, né mangiatore di fuoco    Piuttosto un santo a piedi nudi
   Em                     A                F#m           G         F#m     Em               A
e|---0---------0--------|---0-----0-------|----2----2--------3--------2---|----0--------------0--------2----|
B|---0---------0--------|---2-----2-------|----2----2--------3--------2---|----0--------------2--------2----|
G|--0-0-------0-0-------|--2-2---2-2------|---2-2--2-2------4-4------2-2--|---0-0------------2-2------2-2---|
D|----------------------|-------2---------|--4-------------5--------4-----|--2-------------------2--------2-|
A|-----------2----------|-0---------------|-------4-----------------------|-------2---------0--------0------|
E|0------------|--------|-----------------|-------------------------------|---------------------------------|
 
   Quando vedi che non si taglia,       già lo sai
          D                                     G                Em
e|----------2------2--------2-------2-----|----------2------2-------0-----0---|
B|----------3------3--------3-------3-----|----------2------2-------0-----0---|
G|---------2-2----2-2------2-2-----2-2----|---------0-0----0-0-----0-0---0-0--|
D|--------0-----------------------0-------|-----------------------------------|
A|---------------4 ---------3-------------|----------------------------2------|
E|----------------------------------------|------- 3------2-------0-----------|
 
        Ti potresti innamorare di lui        Forse sei già innamorata di lui
   A                      D             D                       G
e|------0-----0-----------2-------2---|----2-------2--------------2------2----|
B|------2-----2-----------3-------3---|----3-------3--------------2------2----|
G|-----2-2---2-2---------2-2-----2-2--|---2-2-----2-2------------0-0----0-0---|
D|---------2------------0-------------|-0-----------------------------0-------|
A|---0--------------------------0-----|----------0----------------------------|
E|------------------------------------|-------------------------3-------------|
 
Cosa importa se ha vent'anni       E nelle pieghe della    mano  Una linea che gira e
     B7              Em             B7                     Em       C          Am
e|-------2------2-------0------0--|----------2-------2-------0--------0----------0-----0----|
B|-------0------0-------0------0--|----------0-------0-------0--------1----------1-----1----|
G|------2-2----2-2-----0-0----0-0-|---------2-2-----2-2-----0-0------0-0--------2-2---2-2---|
D|-----------1-------2------------|----------------1-------2-------------------------2------|
A|---2-----------------------2----|--------2------------------------3-----------0-----------|
E|--------------------------------|---------------------------------------------------------|
 
   lui risponde serio, "È mia"             Sottintende        la vita
   Am                    F             G                      C       E
e|---0-----------0----------1------1--|-----3---------3-----------0-----0--------|
B|---1-----------1----------1------1--|-----3---------3-----------1-----0--------|
G|--2-2---------2-2--------3-3----3-3-|----4-4-------4-4---------0-0---3-3-------|
D|------------------------4-----------|---5---------------------------2----------|
A|-0-----------------------------4----|-------------5-----------3----------------|
E|-------------3----------------------|------------------------------------------|
 
        E la fine del discorso la conosci già Era acqua corrente un po' di tempo fa
  Am                    D                 Bm              F#m                    G    Gm
e|----0-----0-------------2---------2-------2-------2------2----------------2------3-------3-----|
B|----1-----1-------------3---------3-------3-------3------2----------------2------3-------3-----|
G|---2-2---2-2-----------2-2-------2-2-----4-4-----4-4----2-2--------------2-2----4-4-----3-3----|
D|-------2--------------0-------------------------4--------------------------------------4-------|
A|-0------------------------------0------2---------------------------------4---------------------|
E|--------------------------------------------------------2-----------------------3--------------|
 
      E ora si è fermata qua
  A                       D
e|---0------0-------------2------2--------2------2------|
B|---2------2-------------3------3--------3------3------|
G|--2-2----2-2-----------2-2----2-2------2-2----2-2-----|
D|--------2------------0----------------0---------------|
A|-0--------------------------0----------------0--------|
E|------------------------------------------------------|
 
    Non conosce paura,      l'uomo che salta e vince sui vetri e spezza bottiglie,ride e    sorride
  F#m            Em          A                  D                 F#m              Em       A
e|---2-----2-------0----0------0-----0----------2-----2-------------2-----2---------0----0-----0-----0----|
B|---2-----2-------0----0------2-----2----------3-----3-------------2-----2---------0----0-----2-----2----|
G|--2-2---2-2-----0-0--0-0----2-2---2-2--------2-2---2-2-----------2-2---2-2-------0-0--0-0---2-2---2-2---|
D|-4-------------2-----------------2----------0-------------------4---------------2----------------2------|
A|-------4------------2------0----------------------0-------------------4--------------2-----0------------|
E|--------------------------------------------------------------------------------------------------------|
 
  Perché                     ferirsi non è  possibile     Morire meno che mai e poi  mai
  F#m            Em          A                  D         F#m              Em        A
e|---2-----2-------0----0------0-----0--------2-----2--------2-----2---------0----0-----0-----0----|
B|---2-----2-------0----0------2-----2--------3-----3--------2-----2---------0----0-----2-----2----|
G|--2-2---2-2-----0-0--0-0----2-2---2-2------2-2---2-2------2-2---2-2-------0-0--0-0---2-2---2-2---|
D|-4-------------2-----------------2--------0-------------4---------------2----------------2-------|
A|-------4------------2------0--------------------0-------------4---------------2-----0------------|
E|-------------------------------------------------------------------------------------------------|
 
 
  Em        A
e|--0----0----0-----0-------------|
B|--0----0----2-----2-------------|
G|-0-0--0-0--2-2---2-2------------|
D|2---------------2---------------|
A|-----2----0---------------------|
E|--------------------------------|
 
  Insieme visitate             la notte che        dicono è      due anime e un letto
  Em                          A                   F#m           Bm
e|----0-----------0----------|------0-------0----|----2-----2--|----2-----------2-------|
B|----0-----------0----------|------2-------2----|----2-----2--|----3-----------3-------|
G|---0-0---------0-0---------|----2---2----2--2--|---2-2---2-2-|---4--4-------4---4-----|
D|---------------------------|-----------2-------|-------------|------------4-----------|
A|--------------2------------|--0----------------|--------4----|-2----------------------|
E|-0-------------------------|-------------------|-2-----------|------------------------|
 
 e un tetto di capanna utile   e     dolce     Come ombrello teso     tra la terra
    F#m                   Em           A
e|-----2-------2----|-----0-----0---|-----0-----0--|-----2-------2-------2------2----------|
B|-----2-------2----|-----0-----0---|-----2-----2--|-----3-------3-------3------3----------|
G|----2-2-----2-2---|----0-0---0-0--|----2-2---2-2-|----2-2-----2-2-----2-2----2-2---------|
D|------------------|---------------|---------2----|--0-----------------------0------------|
A|---------4--------|--------2------|--0-----------|-----------4-------3-------------------|
E|---2--------------|--0------------|--------------|-----------------------------------------|
 
 e il cielo                     Lui ti offre la sua ultima carta    Il suo ultimo
  G             Em             A                    D             D
e|-----2-----2-------0-----0--|----0-------0--------2---------2--|----2------2-------|
B|-----2-----2-------0-----0--|----2-------2--------3---------3--|----3------3-------|
G|----0-0---0-0-----0-0---0-0-|---2-2-----2-2------2-2-------2-2-|---2-2----2-2------|
D|----------------------------|----------2--------0--------------|-0-----------------|
A|-----------------------2----|-0---------------------------0----|---------0---------|
E|-3-------2------0-----------|----------------------------------|------------------|
 
   prezioso tentativo di stupire     Quando dice, "È quattro giorni che ti  amo
  G              B7         Em            B7                  Em     C     Am
e|----2------2-----2----2--|---0----0--------2---------2----------0------0-----0---|
B|----2------2-----0----0--|---0----0--------0---------0----------0------1-----1---|
G|---0-0----0-0---2-2--2-2-|--0-0--0-0------2-2-------2-2--------0-0----0-0---2-2--|
D|-------0------------1----|-------------------------1----------2------------------|
A|---------------2---------|------2--------2---------------------------3-----0.----|
E|-3-----------------------|-0-----------------------------------------------------|
 
  Ti prego, non andare via,       non lasciarmi ferito"
  Am     Am/G          F          G              C     E/B
e|----0-------0----------1----1-----3-----1--------0------0------|
B|----1-------1----------1----1-----0-----0--------1------0------|
G|---2-2-----2-2--------2-2--2-2---0-0---0-0------0-0----1-1-----|
D|---------------------3----------------0------------------------|
A|-0------------------------3--------------------3------2--------|
E|----------3----------------------3-----------------------------|
 
     E non hai capito ancora come mai, gli hai lasciato in un minuto tutto quel che hai
  Am                    D           Bm                          F#m                   G       Gm
e|----0-----0----------2------2-------2-------2--------------------2----------2----------3-----3----|
B|----1-----1----------3------3-------3-------3--------------------2----------2----------3-----3----|
G|---2-2---2-2--------2-2----2-2-----4-4----4-4-------------------2-2--------2-2--------4-4---3-3---|
D|-------2-----------0--------------------4---------------------4----------------------5------------|
A|-0------------------------0-------2---------------------------------------4----------------5------|
E|--------------------------------------------------------------------------------------------------|
 
    Però stai bene dove stai
  A                       D                                         G            Em
e|---0------0-------------2------2--------2------2------2------2-------3------3------0--------|
B|---2------2-------------3------3--------3------3------3------3-------0------0------0--------|
G|--2-2----2-2-----------2-2----2-2------2-2----2-2----2-2----2-2-----0-0----0-0----0-0-------|
D|--------2------------0----------------0-------------------0---------------------------------|
A|-0--------------------------0---------------4-------3---------------------------------------|
E|-------------------------------------------------------------------3-----2-------0----------|
 
   Però stai bene dove stai
  A                    D
e|----0------0------------2-------2---------2----------||
B|----2------2------------3-------3---------3----------||
G|---2-2----2-2----------2-2-----2-2--------2----------||
D|---------2-----------0--------------------0----------||
A|-0----------------------------0----------------------||
E|-----------------------------------------------------||
            
Submit corrections

↑ Back to top | Tablatures and chords for acoustic guitar and electric guitar, ukulele, drums are parodies/interpretations of the original songs. You may use it for private study, scholarship, research or language learning purposes only