Home » F » Frampton Peter »

Frampton Peter - Feel Like We Do Tabs

Artists:  A B C D E F G H I J K L M N O P Q R S T U V W X Y Z # 

Feel Like We Do Tabs

(ver. 1) Click to play this song!
Frampton Peter
 Rating:
4/5 (4 votes)
                (Riff)
e---------------------------------------------------------------------------------------------------------
B----------------------------------------------------------------------------------------------------------
G----------------7-------------------------------------------------------------------------------------
D-----10----7-----10----7----------------------------------------------------------------------------
A------------------------------10---8------10^-----8-------------------8----10----8-----------------
E---------------------------------------10---------------10---8-----10------------------10---8---10-- 
  
e----------------     That’s mostly it, play the song twice
B----------------    This is for my best bro. George
G----------------                    Keep twangin’
D----------------
A----------------
E-----5-------8
            
Submit corrections

↑ Back to top | Tablatures and chords for acoustic guitar and electric guitar, ukulele, drums are parodies/interpretations of the original songs. You may use it for private study, scholarship, research or language learning purposes only